  0
SECTION
  2
HEADER
  9
$ACADVER
  1
AC1015
  9
$ACADMAINTVER
 70
     6
  9
$DWGCODEPAGE
  3
ANSI_1254
  9
$INSBASE
 10
0.0
 20
0.0
 30
0.0
  9
$EXTMIN
 10
0.0
 20
0.0
 30
0.0
  9
$EXTMAX
 10
279.4
 20
215.9
 30
0.0
  9
$LIMMIN
 10
0.0
 20
0.0
  9
$LIMMAX
 10
279.4
 20
215.9
  9
$ORTHOMODE
 70
     0
  9
$REGENMODE
 70
     1
  9
$FILLMODE
 70
     1
  9
$QTEXTMODE
 70
     0
  9
$MIRRTEXT
 70
     1
  9
$LTSCALE
 40
1.0
  9
$ATTMODE
 70
     1
  9
$TEXTSIZE
 40
3.5
  9
$TRACEWID
 40
1.0
  9
$TEXTSTYLE
  7
Standard
  9
$CLAYER
  8
0
  9
$CELTYPE
  6
ByLayer
  9
$CECOLOR
 62
   256
  9
$CELTSCALE
 40
1.0
  9
$DISPSILH
 70
     0
  9
$DIMSCALE
 40
1.0
  9
$DIMASZ
 40
3.5
  9
$DIMEXO
 40
1.0
  9
$DIMDLI
 40
3.75
  9
$DIMRND
 40
0.0
  9
$DIMDLE
 40
0.0
  9
$DIMEXE
 40
1.0
  9
$DIMTP
 40
0.0
  9
$DIMTM
 40
0.0
  9
$DIMTXT
 40
3.5
  9
$DIMCEN
 40
2.5
  9
$DIMTSZ
 40
0.0
  9
$DIMTOL
 70
     0
  9
$DIMLIM
 70
     0
  9
$DIMTIH
 70
     1
  9
$DIMTOH
 70
     1
  9
$DIMSE1
 70
     0
  9
$DIMSE2
 70
     0
  9
$DIMTAD
 70
     1
  9
$DIMZIN
 70
     0
  9
$DIMBLK
  1

  9
$DIMASO
 70
     1
  9
$DIMSHO
 70
     1
  9
$DIMPOST
  1

  9
$DIMAPOST
  1

  9
$DIMALT
 70
     0
  9
$DIMALTD
 70
     3
  9
$DIMALTF
 40
0.0393700787
  9
$DIMLFAC
 40
1.0
  9
$DIMTOFL
 70
     1
  9
$DIMTVP
 40
0.0
  9
$DIMTIX
 70
     0
  9
$DIMSOXD
 70
     0
  9
$DIMSAH
 70
     0
  9
$DIMBLK1
  1

  9
$DIMBLK2
  1

  9
$DIMSTYLE
  2
ISO-25
  9
$DIMCLRD
 70
     0
  9
$DIMCLRE
 70
     0
  9
$DIMCLRT
 70
     0
  9
$DIMTFAC
 40
1.0
  9
$DIMGAP
 40
1.524
  9
$DIMJUST
 70
     0
  9
$DIMSD1
 70
     0
  9
$DIMSD2
 70
     0
  9
$DIMTOLJ
 70
     0
  9
$DIMTZIN
 70
     0
  9
$DIMALTZ
 70
     0
  9
$DIMALTTZ
 70
     0
  9
$DIMUPT
 70
     0
  9
$DIMDEC
 70
     2
  9
$DIMTDEC
 70
     2
  9
$DIMALTU
 70
     2
  9
$DIMALTTD
 70
     3
  9
$DIMTXSTY
  7
Standard
  9
$DIMAUNIT
 70
     0
  9
$DIMADEC
 70
     2
  9
$DIMALTRND
 40
0.0
  9
$DIMAZIN
 70
     0
  9
$DIMDSEP
 70
    44
  9
$DIMATFIT
 70
     3
  9
$DIMFRAC
 70
     0
  9
$DIMLDRBLK
  1

  9
$DIMLUNIT
 70
     2
  9
$DIMLWD
 70
    -2
  9
$DIMLWE
 70
    -2
  9
$DIMTMOVE
 70
     0
  9
$LUNITS
 70
     2
  9
$LUPREC
 70
     2
  9
$SKETCHINC
 40
1.0
  9
$FILLETRAD
 40
10.0
  9
$AUNITS
 70
     0
  9
$AUPREC
 70
     2
  9
$MENU
  1
.
  9
$ELEVATION
 40
0.0
  9
$PELEVATION
 40
0.0
  9
$THICKNESS
 40
0.0
  9
$LIMCHECK
 70
     0
  9
$CHAMFERA
 40
0.0
  9
$CHAMFERB
 40
0.0
  9
$CHAMFERC
 40
0.0
  9
$CHAMFERD
 40
0.0
  9
$SKPOLY
 70
     0
  9
$TDCREATE
 40
2459935.710352986
  9
$TDUCREATE
 40
2459935.585352986
  9
$TDUPDATE
 40
2459935.71035316
  9
$TDUUPDATE
 40
2459935.58535316
  9
$TDINDWG
 40
0.0000000116
  9
$TDUSRTIMER
 40
0.0000000116
  9
$USRTIMER
 70
     1
  9
$ANGBASE
 50
0.0
  9
$ANGDIR
 70
     0
  9
$PDMODE
 70
     0
  9
$PDSIZE
 40
-1.0
  9
$PLINEWID
 40
0.0
  9
$SPLFRAME
 70
     0
  9
$SPLINETYPE
 70
     6
  9
$SPLINESEGS
 70
     8
  9
$HANDSEED
  5
111
  9
$SURFTAB1
 70
     6
  9
$SURFTAB2
 70
     6
  9
$SURFTYPE
 70
     6
  9
$SURFU
 70
     6
  9
$SURFV
 70
     6
  9
$UCSBASE
  2

  9
$UCSNAME
  2

  9
$UCSORG
 10
0.0
 20
0.0
 30
0.0
  9
$UCSXDIR
 10
1.0
 20
0.0
 30
0.0
  9
$UCSYDIR
 10
0.0
 20
1.0
 30
0.0
  9
$UCSORTHOREF
  2

  9
$UCSORTHOVIEW
 70
     0
  9
$UCSORGTOP
 10
0.0
 20
0.0
 30
0.0
  9
$UCSORGBOTTOM
 10
0.0
 20
0.0
 30
0.0
  9
$UCSORGLEFT
 10
0.0
 20
0.0
 30
0.0
  9
$UCSORGRIGHT
 10
0.0
 20
0.0
 30
0.0
  9
$UCSORGFRONT
 10
0.0
 20
0.0
 30
0.0
  9
$UCSORGBACK
 10
0.0
 20
0.0
 30
0.0
  9
$PUCSBASE
  2

  9
$PUCSNAME
  2

  9
$PUCSORG
 10
0.0
 20
0.0
 30
0.0
  9
$PUCSXDIR
 10
1.0
 20
0.0
 30
0.0
  9
$PUCSYDIR
 10
0.0
 20
1.0
 30
0.0
  9
$PUCSORTHOREF
  2

  9
$PUCSORTHOVIEW
 70
     0
  9
$PUCSORGTOP
 10
0.0
 20
0.0
 30
0.0
  9
$PUCSORGBOTTOM
 10
0.0
 20
0.0
 30
0.0
  9
$PUCSORGLEFT
 10
0.0
 20
0.0
 30
0.0
  9
$PUCSORGRIGHT
 10
0.0
 20
0.0
 30
0.0
  9
$PUCSORGFRONT
 10
0.0
 20
0.0
 30
0.0
  9
$PUCSORGBACK
 10
0.0
 20
0.0
 30
0.0
  9
$USERI1
 70
     0
  9
$USERI2
 70
     0
  9
$USERI3
 70
     0
  9
$USERI4
 70
     0
  9
$USERI5
 70
     0
  9
$USERR1
 40
0.0
  9
$USERR2
 40
0.0
  9
$USERR3
 40
0.0
  9
$USERR4
 40
0.0
  9
$USERR5
 40
0.0
  9
$WORLDVIEW
 70
     1
  9
$SHADEDGE
 70
     3
  9
$SHADEDIF
 70
    70
  9
$TILEMODE
 70
     1
  9
$MAXACTVP
 70
    64
  9
$PINSBASE
 10
0.0
 20
0.0
 30
0.0
  9
$PLIMCHECK
 70
     0
  9
$PEXTMIN
 10
1.0000000000E+20
 20
1.0000000000E+20
 30
1.0000000000E+20
  9
$PEXTMAX
 10
-1.0000000000E+20
 20
-1.0000000000E+20
 30
-1.0000000000E+20
  9
$PLIMMIN
 10
0.0
 20
0.0
  9
$PLIMMAX
 10
420.0
 20
297.0
  9
$UNITMODE
 70
     0
  9
$VISRETAIN
 70
     1
  9
$PLINEGEN
 70
     0
  9
$PSLTSCALE
 70
     1
  9
$TREEDEPTH
 70
  3020
  9
$CMLSTYLE
  2
Standard
  9
$CMLJUST
 70
     0
  9
$CMLSCALE
 40
20.0
  9
$PROXYGRAPHICS
 70
     1
  9
$MEASUREMENT
 70
     1
  9
$CELWEIGHT
370
    -1
  9
$ENDCAPS
280
     0
  9
$JOINSTYLE
280
     0
  9
$LWDISPLAY
290
     1
  9
$INSUNITS
 70
     4
  9
$HYPERLINKBASE
  1

  9
$STYLESHEET
  1

  9
$XEDIT
290
     1
  9
$CEPSNTYPE
380
     0
  9
$PSTYLEMODE
290
     1
  9
$FINGERPRINTGUID
  2
{9e3b9fd3-4a62-48f3-8b9a-52041f95f9d4}
  9
$VERSIONGUID
  2
{FAEB1C32-E019-11D5-929B-00C0DF256EC4}
  9
$EXTNAMES
290
     1
  9
$PSVPSCALE
 40
0.0
  9
$OLESTARTUP
290
     0
  0
ENDSEC
  0
SECTION
  2
CLASSES
  0
CLASS
  1
ACDBDICTIONARYWDFLT
  2
AcDbDictionaryWithDefault
  3
ObjectDBX Classes
 90
        0
280
     0
281
     0
  0
CLASS
  1
VISUALSTYLE
  2
AcDbVisualStyle
  3
ObjectDBX Classes
 90
     4095
280
     0
281
     0
  0
CLASS
  1
MATERIAL
  2
AcDbMaterial
  3
ObjectDBX Classes
 90
     1153
280
     0
281
     0
  0
CLASS
  1
SCALE
  2
AcDbScale
  3
ObjectDBX Classes
 90
     1153
280
     0
281
     0
  0
CLASS
  1
TABLESTYLE
  2
AcDbTableStyle
  3
ObjectDBX Classes
 90
     4095
280
     0
281
     0
  0
CLASS
  1
MLEADERSTYLE
  2
AcDbMLeaderStyle
  3
ACDB_MLEADERSTYLE_CLASS
 90
     4095
280
     0
281
     0
  0
CLASS
  1
SUN
  2
AcDbSun
  3
SCENEOE
 90
     1153
280
     0
281
     0
  0
CLASS
  1
ACDBPLACEHOLDER
  2
AcDbPlaceHolder
  3
ObjectDBX Classes
 90
        0
280
     0
281
     0
  0
CLASS
  1
LAYOUT
  2
AcDbLayout
  3
ObjectDBX Classes
 90
        0
280
     0
281
     0
  0
ENDSEC
  0
SECTION
  2
TABLES
  0
TABLE
  2
VPORT
  5
8
330
0
100
AcDbSymbolTable
 70
     1
  0
VPORT
  5
29
330
8
100
AcDbSymbolTableRecord
100
AcDbViewportTableRecord
  2
*Active
 70
     0
 10
0.0
 20
0.0
 11
1.0
 21
1.0
 12
139.7
 22
107.95
 13
0.0
 23
0.0
 14
10.0
 24
10.0
 15
10.0
 25
10.0
 16
0.0
 26
0.0
 36
1.0
 17
0.0
 27
0.0
 37
0.0
 40
215.9
 41
1.2941176471
 42
50.0
 43
0.0
 44
0.0
 50
0.0
 51
0.0
 71
     0
 72
  2000
 73
     1
 74
     3
 75
     0
 76
     0
 77
     0
 78
     0
281
     0
 65
     1
110
0.0
120
0.0
130
0.0
111
1.0
121
0.0
131
0.0
112
0.0
122
1.0
132
0.0
 79
     0
146
0.0
  0
ENDTAB
  0
TABLE
  2
LTYPE
  5
5
330
0
100
AcDbSymbolTable
 70
     6
  0
LTYPE
  5
14
330
5
100
AcDbSymbolTableRecord
100
AcDbLinetypeTableRecord
  2
ByBlock
 70
     0
  3

 72
    65
 73
     0
 40
0.0
  0
LTYPE
  5
15
330
5
100
AcDbSymbolTableRecord
100
AcDbLinetypeTableRecord
  2
ByLayer
 70
     0
  3

 72
    65
 73
     0
 40
0.0
  0
LTYPE
  5
16
330
5
100
AcDbSymbolTableRecord
100
AcDbLinetypeTableRecord
  2
Continuous
 70
     0
  3
Solid line
 72
    65
 73
     0
 40
0.0
  0
LTYPE
  5
6E
330
5
100
AcDbSymbolTableRecord
100
AcDbLinetypeTableRecord
  2
HIDDEN
 70
     0
  3
Hidden __ __ __ __ __ __ __ __ __ __ __ __ __ __
 72
    65
 73
     2
 40
1.905
 49
1.27
 74
     0
 49
-0.635
 74
     0
  0
LTYPE
  5
6F
330
5
100
AcDbSymbolTableRecord
100
AcDbLinetypeTableRecord
  2
PHANTOM
 70
     0
  3
Phantom ______  __  __  ______  __  __  ______
 72
    65
 73
     6
 40
12.7
 49
6.35
 74
     0
 49
-1.27
 74
     0
 49
1.27
 74
     0
 49
-1.27
 74
     0
 49
1.27
 74
     0
 49
-1.27
 74
     0
  0
LTYPE
  5
70
330
5
100
AcDbSymbolTableRecord
100
AcDbLinetypeTableRecord
  2
CENTER
 70
     0
  3
Center ____ _ ____ _ ____ _ ____ _ ____ _ ____
 72
    65
 73
     4
 40
10.16
 49
6.35
 74
     0
 49
-1.27
 74
     0
 49
1.27
 74
     0
 49
-1.27
 74
     0
  0
LTYPE
  5
71
330
5
100
AcDbSymbolTableRecord
100
AcDbLinetypeTableRecord
  2
CENTERX2
 70
     0
  3
Center (2x) ________  __  ________  __  _____
 72
    65
 73
     4
 40
20.32
 49
12.7
 74
     0
 49
-2.54
 74
     0
 49
2.54
 74
     0
 49
-2.54
 74
     0
  0
LTYPE
  5
72
330
5
100
AcDbSymbolTableRecord
100
AcDbLinetypeTableRecord
  2
DOT2
 70
     0
  3
Dot (.5x) ........................................
 72
    65
 73
     2
 40
0.635
 49
0.0
 74
     0
 49
-0.635
 74
     0
  0
ENDTAB
  0
TABLE
  2
LAYER
  5
2
330
0
100
AcDbSymbolTable
 70
    17
  0
LAYER
  5
10
330
2
100
AcDbSymbolTableRecord
100
AcDbLayerTableRecord
  2
0
 70
     0
 62
     7
  6
Continuous
370
    -3
390
F
  0
LAYER
  5
73
330
2
100
AcDbSymbolTableRecord
100
AcDbLayerTableRecord
  2
FORMAT
 70
     0
 62
     7
  6
Continuous
370
    -3
390
F
  0
LAYER
  5
74
330
2
100
AcDbSymbolTableRecord
100
AcDbLayerTableRecord
  2
YARDIMCI_GEOMETRI
 70
     0
 62
    -6
  6
Continuous
290
     0
370
    -3
390
F
  0
LAYER
  5
75
330
2
100
AcDbSymbolTableRecord
100
AcDbLayerTableRecord
  2
SAYFA_CERCEVESI
 70
     0
 62
     7
  6
Continuous
370
    25
390
F
  0
LAYER
  5
76
330
2
100
AcDbSymbolTableRecord
100
AcDbLayerTableRecord
  2
ANTET
 70
     0
 62
     7
  6
Continuous
370
    -3
390
F
  0
LAYER
  5
77
330
2
100
AcDbSymbolTableRecord
100
AcDbLayerTableRecord
  2
OLCU
 70
     0
 62
   150
  6
Continuous
370
    -3
390
F
  0
LAYER
  5
78
330
2
100
AcDbSymbolTableRecord
100
AcDbLayerTableRecord
  2
METIN
 70
     0
 62
    96
  6
Continuous
370
    -3
390
F
  0
LAYER
  5
79
330
2
100
AcDbSymbolTableRecord
100
AcDbLayerTableRecord
  2
BALON
 70
     0
 62
     5
  6
Continuous
370
    -3
390
F
  0
LAYER
  5
7A
330
2
100
AcDbSymbolTableRecord
100
AcDbLayerTableRecord
  2
VURGU
 70
     0
 62
     7
  6
Continuous
370
    -3
390
F
  0
LAYER
  5
7B
330
2
100
AcDbSymbolTableRecord
100
AcDbLayerTableRecord
  2
SILIK
 70
     0
 62
     7
  6
Continuous
370
    -3
390
F
  0
LAYER
  5
7C
330
2
100
AcDbSymbolTableRecord
100
AcDbLayerTableRecord
  2
MODEL
 70
     0
 62
     7
  6
Continuous
370
    -3
390
F
  0
LAYER
  5
7D
330
2
100
AcDbSymbolTableRecord
100
AcDbLayerTableRecord
  2
DETAYLANDıRMA
 70
     0
 62
   190
  6
Continuous
370
    -3
390
F
  0
LAYER
  5
7E
330
2
100
AcDbSymbolTableRecord
100
AcDbLayerTableRecord
  2
TOLERANS
 70
     0
 62
   230
  6
Continuous
370
    -3
390
F
  0
LAYER
  5
7F
330
2
100
AcDbSymbolTableRecord
100
AcDbLayerTableRecord
  2
MERKEZ_CIZGILERI
 70
     0
 62
    30
  6
Continuous
370
    -3
390
F
  0
LAYER
  5
80
330
2
100
AcDbSymbolTableRecord
100
AcDbLayerTableRecord
  2
KESIT-DETAY_CIZGILERI
 70
     0
 62
     7
  6
Continuous
370
    -3
390
F
  0
LAYER
  5
81
330
2
100
AcDbSymbolTableRecord
100
AcDbLayerTableRecord
  2
\U+041E\U+0421\U+0415\U+0412\U+042B\U+0415
 70
     0
 62
     7
  6
Continuous
370
    -3
390
F
  0
LAYER
  5
82
330
2
100
AcDbSymbolTableRecord
100
AcDbLayerTableRecord
  2
\U+0412\U+041E\U+0414\U+042F\U+041D\U+042B\U+0415_\U+0417\U+041D\U+0410\U+041A\U+0418
 70
     0
 62
    11
  6
Continuous
370
    -3
390
F
  0
ENDTAB
  0
TABLE
  2
STYLE
  5
3
330
0
100
AcDbSymbolTable
 70
     1
  0
STYLE
  5
11
330
3
100
AcDbSymbolTableRecord
100
AcDbTextStyleTableRecord
  2
Standard
 70
     0
 40
0.0
 41
1.0
 50
0.0
 71
     0
 42
3.5
  3
txt
  4

  0
ENDTAB
  0
TABLE
  2
VIEW
  5
6
330
0
100
AcDbSymbolTable
 70
     0
  0
ENDTAB
  0
TABLE
  2
UCS
  5
7
330
0
100
AcDbSymbolTable
 70
     0
  0
ENDTAB
  0
TABLE
  2
APPID
  5
9
330
0
100
AcDbSymbolTable
 70
     1
  0
APPID
  5
12
330
9
100
AcDbSymbolTableRecord
100
AcDbRegAppTableRecord
  2
ACAD
 70
     0
  0
ENDTAB
  0
TABLE
  2
DIMSTYLE
  5
A
330
0
100
AcDbSymbolTable
 70
     1
100
AcDbDimStyleTable
  0
DIMSTYLE
105
27
330
A
100
AcDbSymbolTableRecord
100
AcDbDimStyleTableRecord
  2
ISO-25
 70
     0
 41
2.5
 42
0.625
 43
3.75
 44
1.25
 73
     0
 74
     0
 77
     1
 78
     8
140
2.5
141
2.5
143
0.0393700787
147
0.625
171
     3
172
     1
178
     0
271
     2
272
     2
274
     3
278
    44
283
     0
284
     8
340
11
  0
ENDTAB
  0
TABLE
  2
BLOCK_RECORD
  5
1
330
0
100
AcDbSymbolTable
 70
     4
  0
BLOCK_RECORD
  5
1F
330
1
100
AcDbSymbolTableRecord
100
AcDbBlockTableRecord
  2
*Model_Space
340
22
  0
BLOCK_RECORD
  5
1B
330
1
100
AcDbSymbolTableRecord
100
AcDbBlockTableRecord
  2
*Paper_Space
340
1E
  0
BLOCK_RECORD
  5
23
330
1
100
AcDbSymbolTableRecord
100
AcDbBlockTableRecord
  2
*Paper_Space0
340
26
  0
BLOCK_RECORD
  5
8C
330
1
100
AcDbSymbolTableRecord
100
AcDbBlockTableRecord
  2
SW_CENTERMARKSYMBOL_0
340
0
102
{BLKREFS
331
97
102
}
  0
BLOCK_RECORD
  5
DE
330
1
100
AcDbSymbolTableRecord
100
AcDbBlockTableRecord
  2
SW_CENTERMARKSYMBOL_1
340
0
102
{BLKREFS
331
E9
102
}
  0
BLOCK_RECORD
  5
EA
330
1
100
AcDbSymbolTableRecord
100
AcDbBlockTableRecord
  2
SW_CENTERMARKSYMBOL_2
340
0
102
{BLKREFS
331
F5
102
}
  0
ENDTAB
  0
ENDSEC
  0
SECTION
  2
BLOCKS
  0
BLOCK
  5
20
330
1F
100
AcDbEntity
  8
0
100
AcDbBlockBegin
  2
*Model_Space
 70
     0
 10
0.0
 20
0.0
 30
0.0
  3
*Model_Space
  1

  0
ENDBLK
  5
21
330
1F
100
AcDbEntity
  8
0
100
AcDbBlockEnd
  0
BLOCK
  5
1C
330
1B
100
AcDbEntity
 67
     1
  8
0
100
AcDbBlockBegin
  2
*Paper_Space
 70
     0
 10
0.0
 20
0.0
 30
0.0
  3
*Paper_Space
  1

  0
ENDBLK
  5
1D
330
1B
100
AcDbEntity
 67
     1
  8
0
100
AcDbBlockEnd
  0
BLOCK
  5
24
330
23
100
AcDbEntity
  8
0
100
AcDbBlockBegin
  2
*Paper_Space0
 70
     0
 10
0.0
 20
0.0
 30
0.0
  3
*Paper_Space0
  1

  0
ENDBLK
  5
25
330
23
100
AcDbEntity
  8
0
100
AcDbBlockEnd
  0
BLOCK
  5
8D
330
8C
100
AcDbEntity
  8
0
100
AcDbBlockBegin
  2
SW_CENTERMARKSYMBOL_0
 70
     0
 10
0.0
 20
0.0
 30
0.0
  3
SW_CENTERMARKSYMBOL_0
  1

  0
LINE
  5
8F
330
8C
100
AcDbEntity
  8
FORMAT
 62
     0
100
AcDbLine
 10
0.0
 20
0.0
 30
0.0
 11
0.0
 21
2.5
 31
0.0
  0
LINE
  5
90
330
8C
100
AcDbEntity
  8
FORMAT
 62
     0
100
AcDbLine
 10
0.0
 20
0.0
 30
0.0
 11
-2.5
 21
0.0
 31
0.0
  0
LINE
  5
91
330
8C
100
AcDbEntity
  8
FORMAT
 62
     0
100
AcDbLine
 10
0.0
 20
0.0
 30
0.0
 11
0.0
 21
-2.5
 31
0.0
  0
LINE
  5
92
330
8C
100
AcDbEntity
  8
FORMAT
 62
     0
100
AcDbLine
 10
0.0
 20
0.0
 30
0.0
 11
2.5
 21
0.0
 31
0.0
  0
LINE
  5
93
330
8C
100
AcDbEntity
  8
FORMAT
 62
     0
100
AcDbLine
 10
0.0
 20
5.0
 30
0.0
 11
0.0
 21
115.7
 31
0.0
  0
LINE
  5
94
330
8C
100
AcDbEntity
  8
FORMAT
 62
     0
100
AcDbLine
 10
-5.0
 20
0.0
 30
0.0
 11
-115.7
 21
0.0
 31
0.0
  0
LINE
  5
95
330
8C
100
AcDbEntity
  8
FORMAT
 62
     0
100
AcDbLine
 10
0.0
 20
-5.0
 30
0.0
 11
0.0
 21
-115.7
 31
0.0
  0
LINE
  5
96
330
8C
100
AcDbEntity
  8
FORMAT
 62
     0
100
AcDbLine
 10
5.0
 20
0.0
 30
0.0
 11
115.7
 21
0.0
 31
0.0
  0
ENDBLK
  5
8E
330
8C
100
AcDbEntity
  8
0
100
AcDbBlockEnd
  0
BLOCK
  5
DF
330
DE
100
AcDbEntity
  8
0
100
AcDbBlockBegin
  2
SW_CENTERMARKSYMBOL_1
 70
     0
 10
0.0
 20
0.0
 30
0.0
  3
SW_CENTERMARKSYMBOL_1
  1

  0
LINE
  5
E1
330
DE
100
AcDbEntity
  8
FORMAT
 62
     0
100
AcDbLine
 10
0.0
 20
0.0
 30
0.0
 11
0.0
 21
2.5
 31
0.0
  0
LINE
  5
E2
330
DE
100
AcDbEntity
  8
FORMAT
 62
     0
100
AcDbLine
 10
0.0
 20
0.0
 30
0.0
 11
-2.5
 21
0.0
 31
0.0
  0
LINE
  5
E3
330
DE
100
AcDbEntity
  8
FORMAT
 62
     0
100
AcDbLine
 10
0.0
 20
0.0
 30
0.0
 11
0.0
 21
-2.5
 31
0.0
  0
LINE
  5
E4
330
DE
100
AcDbEntity
  8
FORMAT
 62
     0
100
AcDbLine
 10
0.0
 20
0.0
 30
0.0
 11
2.5
 21
0.0
 31
0.0
  0
LINE
  5
E5
330
DE
100
AcDbEntity
  8
FORMAT
 62
     0
100
AcDbLine
 10
0.0
 20
5.0
 30
0.0
 11
0.0
 21
9.5
 31
0.0
  0
LINE
  5
E6
330
DE
100
AcDbEntity
  8
FORMAT
 62
     0
100
AcDbLine
 10
-5.0
 20
0.0
 30
0.0
 11
-9.5
 21
0.0
 31
0.0
  0
LINE
  5
E7
330
DE
100
AcDbEntity
  8
FORMAT
 62
     0
100
AcDbLine
 10
0.0
 20
-5.0
 30
0.0
 11
0.0
 21
-9.5
 31
0.0
  0
LINE
  5
E8
330
DE
100
AcDbEntity
  8
FORMAT
 62
     0
100
AcDbLine
 10
5.0
 20
0.0
 30
0.0
 11
9.5
 21
0.0
 31
0.0
  0
ENDBLK
  5
E0
330
DE
100
AcDbEntity
  8
0
100
AcDbBlockEnd
  0
BLOCK
  5
EB
330
EA
100
AcDbEntity
  8
0
100
AcDbBlockBegin
  2
SW_CENTERMARKSYMBOL_2
 70
     0
 10
0.0
 20
0.0
 30
0.0
  3
SW_CENTERMARKSYMBOL_2
  1

  0
LINE
  5
ED
330
EA
100
AcDbEntity
  8
FORMAT
 62
     0
100
AcDbLine
 10
0.0
 20
0.0
 30
0.0
 11
0.0
 21
2.5
 31
0.0
  0
LINE
  5
EE
330
EA
100
AcDbEntity
  8
FORMAT
 62
     0
100
AcDbLine
 10
0.0
 20
0.0
 30
0.0
 11
-2.5
 21
0.0
 31
0.0
  0
LINE
  5
EF
330
EA
100
AcDbEntity
  8
FORMAT
 62
     0
100
AcDbLine
 10
0.0
 20
0.0
 30
0.0
 11
0.0
 21
-2.5
 31
0.0
  0
LINE
  5
F0
330
EA
100
AcDbEntity
  8
FORMAT
 62
     0
100
AcDbLine
 10
0.0
 20
0.0
 30
0.0
 11
2.5
 21
0.0
 31
0.0
  0
LINE
  5
F1
330
EA
100
AcDbEntity
  8
FORMAT
 62
     0
100
AcDbLine
 10
0.0
 20
5.0
 30
0.0
 11
0.0
 21
9.5
 31
0.0
  0
LINE
  5
F2
330
EA
100
AcDbEntity
  8
FORMAT
 62
     0
100
AcDbLine
 10
-5.0
 20
0.0
 30
0.0
 11
-9.5
 21
0.0
 31
0.0
  0
LINE
  5
F3
330
EA
100
AcDbEntity
  8
FORMAT
 62
     0
100
AcDbLine
 10
0.0
 20
-5.0
 30
0.0
 11
0.0
 21
-9.5
 31
0.0
  0
LINE
  5
F4
330
EA
100
AcDbEntity
  8
FORMAT
 62
     0
100
AcDbLine
 10
5.0
 20
0.0
 30
0.0
 11
9.5
 21
0.0
 31
0.0
  0
ENDBLK
  5
EC
330
EA
100
AcDbEntity
  8
0
100
AcDbBlockEnd
  0
ENDSEC
  0
SECTION
  2
ENTITIES
  0
LINE
  5
83
330
1F
100
AcDbEntity
  8
0
  6
Continuous
 62
     7
370
    25
100
AcDbLine
 10
144.4637874962
 20
230.6573080939
 30
0.0
 11
144.4637874962
 21
237.0949519231
 31
0.0
  0
LINE
  5
84
330
1F
100
AcDbEntity
  8
0
  6
Continuous
 62
     7
370
    25
100
AcDbLine
 10
130.4637874962
 20
237.0949519231
 30
0.0
 11
130.4637874962
 21
230.6582316677
 31
0.0
  0
CIRCLE
  5
85
330
1F
100
AcDbEntity
  8
0
  6
Continuous
 62
     7
370
    25
100
AcDbCircle
 10
137.4637874962
 20
95.8949519231
 30
0.0
 40
134.7
  0
ARC
  5
86
330
1F
100
AcDbEntity
  8
0
  6
Continuous
 62
     7
370
    25
100
AcDbCircle
 10
137.4637874962
 20
95.8949519231
 30
0.0
 40
135.6999999999999
100
AcDbArc
 50
92.9568794487
 51
180.0
  0
ARC
  5
87
330
1F
100
AcDbEntity
  8
0
  6
Continuous
 62
     7
370
    25
100
AcDbCircle
 10
137.4637874962
 20
95.8949519231
 30
0.0
 40
135.6999999999999
100
AcDbArc
 50
180.0
 51
87.0431205513
  0
SPLINE
  5
88
330
1F
100
AcDbEntity
  8
0
  6
Continuous
 62
     7
370
    25
100
AcDbSpline
210
0.0
220
0.0
230
1.0
 70
     8
 71
     3
 72
    14
 73
    10
 74
     0
 42
0.00000001
 43
0.00000001
 40
0.0
 40
0.0
 40
0.0
 40
0.0
 40
0.1560451980527257
 40
0.3120925733278684
 40
0.4680905726069935
 40
0.624114188364846
 40
0.780203142996676
 40
0.9362364241125499
 40
1.0
 40
1.0
 40
1.0
 40
1.0
 10
141.3637317385748
 20
230.6665138374719
 30
0.0
 10
140.6671664896808
 20
230.6763231461149
 30
0.0
 10
139.2740262730581
 20
230.6959419002654
 30
0.0
 10
136.8617013239217
 20
230.702562307971
 30
0.0
 10
134.5524219045552
 20
230.683496841661
 30
0.0
 10
132.549870710075
 20
230.6496858408797
 30
0.0
 10
131.1508339262262
 20
230.6269073665566
 30
0.0
 10
130.4553324026101
 20
230.6264026221676
 30
0.0
 10
130.5361458967775
 20
230.6510743441958
 30
0.0
 10
130.5595900780926
 20
230.6582316677411
 30
0.0
  0
SPLINE
  5
89
330
1F
100
AcDbEntity
  8
0
  6
Continuous
 62
     7
370
    25
100
AcDbSpline
210
0.0
220
0.0
230
1.0
 70
     8
 71
     3
 72
    11
 73
     7
 74
     0
 42
0.00000001
 43
0.00000001
 40
0.0
 40
0.0
 40
0.0
 40
0.0
 40
0.0938649771519091
 40
0.4378317904638603
 40
0.7816220056295822
 40
1.0
 40
1.0
 40
1.0
 40
1.0
 10
144.3850132310306
 20
230.6573080939095
 30
0.0
 10
144.4082280020249
 20
230.6521767617995
 30
0.0
 10
144.5165129562012
 20
230.6282417394584
 30
0.0
 10
143.907666584587
 20
230.6259056879971
 30
0.0
 10
142.7838440111144
 20
230.6428521640142
 30
0.0
 10
141.7610448871186
 20
230.6598938721613
 30
0.0
 10
141.3637317385748
 20
230.6665138374719
 30
0.0
  0
CIRCLE
  5
8A
330
1F
100
AcDbEntity
  8
0
  6
Continuous
 62
     7
370
    25
100
AcDbCircle
 10
137.4637874962
 20
95.8949519231
 30
0.0
 40
113.2
  0
LINE
  5
8B
330
1F
100
AcDbEntity
  8
0
  6
Continuous
 62
     7
370
    25
100
AcDbLine
 10
144.4637874962
 20
237.0949519231
 30
0.0
 11
130.4637874962
 21
237.0949519231
 31
0.0
  0
INSERT
  5
97
330
1F
100
AcDbEntity
  8
FORMAT
 62
     7
100
AcDbBlockReference
  2
SW_CENTERMARKSYMBOL_0
 10
137.4637874962
 20
95.8949519231
 30
0.0
  0
ARC
  5
98
330
1F
100
AcDbEntity
  8
0
  6
Continuous
 62
     7
370
    25
100
AcDbCircle
 10
501.7896834411
 20
-4140.0300480769
 30
0.0
 40
4371.62500000002
100
AcDbArc
 50
91.1595482596
 51
91.2255314445
  0
ARC
  5
99
330
1F
100
AcDbEntity
  8
0
  6
Continuous
 62
     7
370
    25
100
AcDbCircle
 10
501.7896834411
 20
-4140.0300480769
 30
0.0
 40
4371.62500000002
100
AcDbArc
 50
90.0
 51
90.9773809963
  0
ARC
  5
9A
330
1F
100
AcDbEntity
  8
0
  6
Continuous
 62
     7
370
    25
100
AcDbCircle
 10
501.7896834411
 20
4331.8199519231
 30
0.0
 40
4371.62500000002
100
AcDbArc
 50
268.7744685555
 51
270.0
  0
LINE
  5
9B
330
1F
100
AcDbEntity
  8
0
  6
Continuous
 62
     7
370
    25
100
AcDbLine
 10
501.7896834411
 20
-39.8050480769
 30
0.0
 11
526.7896834411
 21
-39.8050480769
 31
0.0
  0
LINE
  5
9C
330
1F
100
AcDbEntity
  8
0
  6
Continuous
 62
     7
370
    25
100
AcDbLine
 10
526.7896834411
 20
231.5949519231
 30
0.0
 11
501.7896834411
 21
231.5949519231
 31
0.0
  0
ARC
  5
9D
330
1F
100
AcDbEntity
  8
0
  6
Continuous
 62
     7
370
    25
100
AcDbCircle
 10
526.7896834411
 20
-4140.0300480769
 30
0.0
 40
4371.62500000002
100
AcDbArc
 50
89.0232079013
 51
90.0
  0
ARC
  5
9E
330
1F
100
AcDbEntity
  8
0
  6
Continuous
 62
     7
370
    25
100
AcDbCircle
 10
526.7896834411
 20
-4140.0300480769
 30
0.0
 40
4371.62500000002
100
AcDbArc
 50
88.7744685555
 51
88.8409900232
  0
ARC
  5
9F
330
1F
100
AcDbEntity
  8
0
  6
Continuous
 62
     7
370
    25
100
AcDbCircle
 10
526.7896834411
 20
4331.8199519231
 30
0.0
 40
4371.62500000002
100
AcDbArc
 50
270.0
 51
271.2255314445
  0
LINE
  5
A0
330
1F
100
AcDbEntity
  8
0
  6
Continuous
 62
     7
370
    25
100
AcDbLine
 10
427.2896834411
 20
230.9553808422
 30
0.0
 11
427.2896834411
 21
237.0949519231
 31
0.0
  0
LINE
  5
A1
330
1F
100
AcDbEntity
  8
0
  6
Continuous
 62
     7
370
    25
100
AcDbLine
 10
413.2896834411
 20
237.0949519231
 30
0.0
 11
413.2896834411
 21
230.6980593236
 31
0.0
  0
LINE
  5
A2
330
1F
100
AcDbEntity
  8
0
  6
Continuous
 62
     7
370
    25
100
AcDbLine
 10
615.2896834411
 20
230.6967627838
 30
0.0
 11
615.2896834411
 21
237.0949519231
 31
0.0
  0
LINE
  5
A3
330
1F
100
AcDbEntity
  8
0
  6
Continuous
 62
     7
370
    25
100
AcDbLine
 10
601.2896834411
 20
237.0949519231
 30
0.0
 11
601.2896834411
 21
230.9584538983
 31
0.0
  0
LINE
  5
A4
330
1F
100
AcDbEntity
  8
0
  6
Continuous
 62
     7
370
    25
100
AcDbLine
 10
408.2896834411
 20
95.8949519231
 30
0.0
 11
408.2896834411
 21
230.5949519231
 31
0.0
  0
LINE
  5
A5
330
1F
100
AcDbEntity
  8
0
  6
Continuous
 62
     7
370
    25
100
AcDbLine
 10
408.2896834411
 20
-38.8050480769
 30
0.0
 11
408.2896834411
 21
95.8949519231
 31
0.0
  0
SPLINE
  5
A6
330
1F
100
AcDbEntity
  8
0
  6
Continuous
 62
     7
370
    25
100
AcDbSpline
210
0.0
220
0.0
230
1.0
 70
     8
 71
     3
 72
    18
 73
    14
 74
     0
 42
0.00000001
 43
0.00000001
 40
0.0
 40
0.0
 40
0.0
 40
0.0
 40
0.0245229116019102
 40
0.1316118707681994
 40
0.2387541276135117
 40
0.3461174353604282
 40
0.453595335053313
 40
0.5609684883718347
 40
0.6681923737045709
 40
0.7754096116865986
 40
0.8827156240210644
 40
0.9900487692759724
 40
1.0
 40
1.0
 40
1.0
 40
1.0
 10
427.2198617688658
 20
230.9553399136006
 30
0.0
 10
427.2413168076511
 20
230.956802374075
 30
0.0
 10
427.3564637297524
 20
230.9646512446366
 30
0.0
 10
426.7820207305266
 20
230.9249533030326
 30
0.0
 10
425.5207992517794
 20
230.846458703682
 30
0.0
 10
423.6049637496154
 20
230.7494285678463
 30
0.0
 10
421.3309574602871
 20
230.6700611874834
 30
0.0
 10
418.9332531914813
 20
230.6281318187906
 30
0.0
 10
416.697240115935
 20
230.6276269137502
 30
0.0
 10
414.8440786980937
 20
230.6557949688665
 30
0.0
 10
413.6853525500871
 20
230.6862186489409
 30
0.0
 10
413.1832623923731
 20
230.7023090418666
 30
0.0
 10
413.3120213506936
 20
230.6983707329645
 30
0.0
 10
413.322946165626
 20
230.6980365791592
 30
0.0
  0
LINE
  5
A7
330
1F
100
AcDbEntity
  8
0
  6
Continuous
 62
     7
370
    25
100
AcDbLine
 10
620.2896834411
 20
95.8949519231
 30
0.0
 11
620.2896834411
 21
230.5949519231
 31
0.0
  0
LINE
  5
A8
330
1F
100
AcDbEntity
  8
0
  6
Continuous
 62
     7
370
    25
100
AcDbLine
 10
620.2896834411
 20
-38.8050480769
 30
0.0
 11
620.2896834411
 21
95.8949519231
 31
0.0
  0
SPLINE
  5
A9
330
1F
100
AcDbEntity
  8
0
  6
Continuous
 62
     7
370
    25
100
AcDbSpline
210
0.0
220
0.0
230
1.0
 70
     8
 71
     3
 72
    18
 73
    14
 74
     0
 42
0.00000001
 43
0.00000001
 40
0.0
 40
0.0
 40
0.0
 40
0.0
 40
0.0268367661621999
 40
0.1341162882921223
 40
0.2414134268248782
 40
0.3487554987747882
 40
0.4560592841555458
 40
0.563276038552815
 40
0.6705167936580321
 40
0.7779139087845571
 40
0.8853976892832656
 40
0.9927448726030956
 40
1.0
 40
1.0
 40
1.0
 40
1.0
 10
615.2153047210386
 20
230.6967452291777
 30
0.0
 10
615.2377970050202
 20
230.6974427606811
 30
0.0
 10
615.3502018165611
 20
230.7009286626572
 30
0.0
 10
614.7612877396365
 20
230.6821590632547
 30
0.0
 10
613.4801743127458
 20
230.650413804593
 30
0.0
 10
611.5512491203482
 20
230.6253335618582
 30
0.0
 10
609.272251344757
 20
230.6318418816518
 30
0.0
 10
606.8778114853253
 20
230.680414965461
 30
0.0
 10
604.6499230445429
 20
230.7639034963011
 30
0.0
 10
602.8071596321845
 20
230.8611831952556
 30
0.0
 10
601.666987132738
 20
230.9338109181678
 30
0.0
 10
601.1766289362648
 20
230.967755888609
 30
0.0
 10
601.3063361899048
 20
230.9589738276277
 30
0.0
 10
601.3145475657801
 20
230.9584178617765
 30
0.0
  0
LINE
  5
AA
330
1F
100
AcDbEntity
  8
0
  6
Continuous
 62
     7
370
    25
100
AcDbLine
 10
427.2896834411
 20
237.0949519231
 30
0.0
 11
413.2896834411
 21
237.0949519231
 31
0.0
  0
LINE
  5
AB
330
1F
100
AcDbEntity
  8
0
  6
Continuous
 62
     7
370
    25
100
AcDbLine
 10
615.2896834411
 20
237.0949519231
 30
0.0
 11
601.2896834411
 21
237.0949519231
 31
0.0
  0
LINE
  5
AC
330
1F
100
AcDbEntity
  8
0
  6
Continuous
 62
     1
370
    25
100
AcDbLine
 10
501.7896834411
 20
95.8949519231
 30
0.0
 11
501.7896834411
 21
231.5949519231
 31
0.0
  0
LINE
  5
AD
330
1F
100
AcDbEntity
  8
0
  6
Continuous
 62
     1
370
    25
100
AcDbLine
 10
501.7896834411
 20
-39.8050480769
 30
0.0
 11
501.7896834411
 21
95.8949519231
 31
0.0
  0
LINE
  5
AE
330
1F
100
AcDbEntity
  8
0
  6
Continuous
 62
     1
370
    25
100
AcDbLine
 10
526.7896834411
 20
95.8949519231
 30
0.0
 11
526.7896834411
 21
231.5949519231
 31
0.0
  0
LINE
  5
AF
330
1F
100
AcDbEntity
  8
0
  6
Continuous
 62
     1
370
    25
100
AcDbLine
 10
526.7896834411
 20
-39.8050480769
 30
0.0
 11
526.7896834411
 21
95.8949519231
 31
0.0
  0
ARC
  5
B0
330
1F
100
AcDbEntity
  8
0
  6
Continuous
 62
     7
370
    25
100
AcDbCircle
 10
4373.3887874962
 20
431.0411886171
 30
0.0
 40
4371.625000000019
100
AcDbArc
 50
180.0
 51
181.2255314445
  0
ARC
  5
B1
330
1F
100
AcDbEntity
  8
0
  6
Continuous
 62
     7
370
    25
100
AcDbCircle
 10
-4098.4612125039
 20
431.0411886171
 30
0.0
 40
4371.62500000002
100
AcDbArc
 50
358.7744685555
 51
0.0
  0
LINE
  5
B2
330
1F
100
AcDbEntity
  8
0
  6
Continuous
 62
     7
370
    25
100
AcDbLine
 10
273.1637874962
 20
431.0411886171
 30
0.0
 11
273.1637874962
 21
456.0411886171
 31
0.0
  0
LINE
  5
B3
330
1F
100
AcDbEntity
  8
0
  6
Continuous
 62
     7
370
    25
100
AcDbLine
 10
1.7637874962
 20
456.0411886171
 30
0.0
 11
1.7637874962
 21
431.0411886171
 31
0.0
  0
ARC
  5
B4
330
1F
100
AcDbEntity
  8
0
  6
Continuous
 62
     7
370
    25
100
AcDbCircle
 10
4373.3887874962
 20
456.0411886171
 30
0.0
 40
4371.625000000019
100
AcDbArc
 50
178.7744685555
 51
180.0
  0
ARC
  5
B5
330
1F
100
AcDbEntity
  8
0
  6
Continuous
 62
     7
370
    25
100
AcDbCircle
 10
-4098.4612125039
 20
456.0411886171
 30
0.0
 40
4371.62500000002
100
AcDbArc
 50
0.0
 51
1.2255314445
  0
LINE
  5
B6
330
1F
100
AcDbEntity
  8
0
  6
Continuous
 62
     7
370
    25
100
AcDbLine
 10
272.1637874962
 20
337.5411886171
 30
0.0
 11
2.7637874962
 21
337.5411886171
 31
0.0
  0
LINE
  5
B7
330
1F
100
AcDbEntity
  8
0
  6
Continuous
 62
     7
370
    25
100
AcDbLine
 10
272.1637874962
 20
549.5411886171
 30
0.0
 11
2.7637874962
 21
549.5411886171
 31
0.0
  0
LINE
  5
B8
330
1F
100
AcDbEntity
  8
0
  6
Continuous
 62
     1
370
    25
100
AcDbLine
 10
273.1637874962
 20
431.0411886171
 30
0.0
 11
1.7637874962
 21
431.0411886171
 31
0.0
  0
LINE
  5
B9
330
1F
100
AcDbEntity
  8
0
  6
Continuous
 62
     1
370
    25
100
AcDbLine
 10
273.1637874962
 20
456.0411886171
 30
0.0
 11
1.7637874962
 21
456.0411886171
 31
0.0
  0
ARC
  5
BA
330
1F
100
AcDbEntity
  8
0
  6
Continuous
 62
     7
370
    25
100
AcDbCircle
 10
-221.7110332541
 20
4331.8199519231
 30
0.0
 40
4371.62500000002
100
AcDbArc
 50
270.0
 51
271.2255314445
  0
ARC
  5
BB
330
1F
100
AcDbEntity
  8
0
  6
Continuous
 62
     7
370
    25
100
AcDbCircle
 10
-221.7110332541
 20
-4140.0300480769
 30
0.0
 40
4371.62500000002
100
AcDbArc
 50
89.0226184718
 51
90.0
  0
ARC
  5
BC
330
1F
100
AcDbEntity
  8
0
  6
Continuous
 62
     7
370
    25
100
AcDbCircle
 10
-221.7110332541
 20
-4140.0300480769
 30
0.0
 40
4371.62500000002
100
AcDbArc
 50
88.7744685555
 51
88.8404514182
  0
LINE
  5
BD
330
1F
100
AcDbEntity
  8
0
  6
Continuous
 62
     7
370
    25
100
AcDbLine
 10
-221.7110332541
 20
231.5949519231
 30
0.0
 11
-246.7110332541
 21
231.5949519231
 31
0.0
  0
LINE
  5
BE
330
1F
100
AcDbEntity
  8
0
  6
Continuous
 62
     7
370
    25
100
AcDbLine
 10
-246.7110332541
 20
-39.8050480769
 30
0.0
 11
-221.7110332541
 21
-39.8050480769
 31
0.0
  0
ARC
  5
BF
330
1F
100
AcDbEntity
  8
0
  6
Continuous
 62
     7
370
    25
100
AcDbCircle
 10
-246.7110332541
 20
4331.8199519231
 30
0.0
 40
4371.62500000002
100
AcDbArc
 50
268.7744685555
 51
270.0
  0
ARC
  5
C0
330
1F
100
AcDbEntity
  8
0
  6
Continuous
 62
     7
370
    25
100
AcDbCircle
 10
-246.7110332541
 20
-4140.0300480769
 30
0.0
 40
4371.62500000002
100
AcDbArc
 50
91.15900982
 51
91.2255314445
  0
ARC
  5
C1
330
1F
100
AcDbEntity
  8
0
  6
Continuous
 62
     7
370
    25
100
AcDbCircle
 10
-246.7110332541
 20
-4140.0300480769
 30
0.0
 40
4371.62500000002
100
AcDbArc
 50
90.0
 51
90.9767912915
  0
LINE
  5
C2
330
1F
100
AcDbEntity
  8
0
  6
Continuous
 62
     7
370
    25
100
AcDbLine
 10
-133.2110332541
 20
230.6980593236
 30
0.0
 11
-133.2110332541
 21
237.0949519231
 31
0.0
  0
LINE
  5
C3
330
1F
100
AcDbEntity
  8
0
  6
Continuous
 62
     7
370
    25
100
AcDbLine
 10
-147.2110332541
 20
237.0949519231
 30
0.0
 11
-147.2110332541
 21
230.9553808422
 31
0.0
  0
LINE
  5
C4
330
1F
100
AcDbEntity
  8
0
  6
Continuous
 62
     7
370
    25
100
AcDbLine
 10
-321.2110332541
 20
230.9584538983
 30
0.0
 11
-321.2110332541
 21
237.0949519231
 31
0.0
  0
LINE
  5
C5
330
1F
100
AcDbEntity
  8
0
  6
Continuous
 62
     7
370
    25
100
AcDbLine
 10
-335.2110332541
 20
237.0949519231
 30
0.0
 11
-335.2110332541
 21
230.6967627838
 31
0.0
  0
LINE
  5
C6
330
1F
100
AcDbEntity
  8
0
  6
Continuous
 62
     7
370
    25
100
AcDbLine
 10
-128.2110332541
 20
230.5949519231
 30
0.0
 11
-128.2110332541
 21
-38.8050480769
 31
0.0
  0
SPLINE
  5
C7
330
1F
100
AcDbEntity
  8
0
  6
Continuous
 62
     7
370
    25
100
AcDbSpline
210
0.0
220
0.0
230
1.0
 70
     8
 71
     3
 72
     9
 73
     5
 74
     0
 42
0.00000001
 43
0.00000001
 40
0.0
 40
0.0
 40
0.0
 40
0.0
 40
0.5645345291449704
 40
1.0
 40
1.0
 40
1.0
 40
1.0
 10
-145.9983182020533
 20
230.881835872778
 30
0.0
 10
-146.39534377333
 20
230.9070372113981
 30
0.0
 10
-147.0986232908434
 20
230.9516781276203
 30
0.0
 10
-147.1282994040424
 20
230.9542295760573
 30
0.0
 10
-147.1412223266497
 20
230.9553406437523
 30
0.0
  0
SPLINE
  5
C8
330
1F
100
AcDbEntity
  8
0
  6
Continuous
 62
     7
370
    25
100
AcDbSpline
210
0.0
220
0.0
230
1.0
 70
     8
 71
     3
 72
    15
 73
    11
 74
     0
 42
0.00000001
 43
0.00000001
 40
0.0
 40
0.0
 40
0.0
 40
0.0
 40
0.1202449062377752
 40
0.2527607767852551
 40
0.3853374347042243
 40
0.5179098628679333
 40
0.650375236000915
 40
0.7828054600251053
 40
0.9153910388376557
 40
1.0
 40
1.0
 40
1.0
 40
1.0
 10
-133.2442708500381
 20
230.6980373454473
 30
0.0
 10
-133.2947288536116
 20
230.6963509503751
 30
0.0
 10
-133.4007940881177
 20
230.6928060640114
 30
0.0
 10
-134.5169655849794
 20
230.6612801735099
 30
0.0
 10
-136.24061116012
 20
230.6313923551793
 30
0.0
 10
-138.4298353567284
 20
230.6251049009358
 30
0.0
 10
-140.8163212202537
 20
230.6592928733701
 30
0.0
 10
-143.1248021766974
 20
230.7326659778161
 30
0.0
 10
-144.899936479876
 20
230.8174829814673
 30
0.0
 10
-145.6903928926287
 20
230.8637948916062
 30
0.0
 10
-145.9983182020533
 20
230.881835872778
 30
0.0
  0
LINE
  5
C9
330
1F
100
AcDbEntity
  8
0
  6
Continuous
 62
     7
370
    25
100
AcDbLine
 10
-340.2110332541
 20
230.5949519231
 30
0.0
 11
-340.2110332541
 21
-38.8050480769
 31
0.0
  0
SPLINE
  5
CA
330
1F
100
AcDbEntity
  8
0
  6
Continuous
 62
     7
370
    25
100
AcDbSpline
210
0.0
220
0.0
230
1.0
 70
     8
 71
     3
 72
     9
 73
     5
 74
     0
 42
0.00000001
 43
0.00000001
 40
0.0
 40
0.0
 40
0.0
 40
0.0
 40
0.5714663601746469
 40
1.0
 40
1.0
 40
1.0
 40
1.0
 10
-334.023987314318
 20
230.6665138374717
 30
0.0
 10
-334.4177554851286
 20
230.6769121146576
 30
0.0
 10
-335.1068042170441
 20
230.6951078964403
 30
0.0
 10
-335.127693298814
 20
230.6962538536266
 30
0.0
 10
-335.1366449730575
 20
230.6967449348308
 30
0.0
  0
SPLINE
  5
CB
330
1F
100
AcDbEntity
  8
0
  6
Continuous
 62
     7
370
    25
100
AcDbSpline
210
0.0
220
0.0
230
1.0
 70
     8
 71
     3
 72
    15
 73
    11
 74
     0
 42
0.00000001
 43
0.00000001
 40
0.0
 40
0.0
 40
0.0
 40
0.0
 40
0.1230275559560156
 40
0.2549717969433655
 40
0.3871594367725633
 40
0.5195579816592837
 40
0.6518970619814992
 40
0.7840361530392592
 40
0.9161074017424019
 40
1.0
 40
1.0
 40
1.0
 40
1.0
 10
-321.2359228656579
 20
230.9584161378401
 30
0.0
 10
-321.2930135508317
 20
230.9543909389396
 30
0.0
 10
-321.4113326905917
 20
230.9460488062464
 30
0.0
 10
-322.5477951794869
 20
230.8718640800924
 30
0.0
 10
-324.281965898048
 20
230.7776224901649
 30
0.0
 10
-326.4781627409414
 20
230.6900746546875
 30
0.0
 10
-328.8686696622894
 20
230.6359371455379
 30
0.0
 10
-331.1744863228579
 20
230.6240276306835
 30
0.0
 10
-332.9389016333308
 20
230.643128163451
 30
0.0
 10
-333.7204065223699
 20
230.6599710901441
 30
0.0
 10
-334.023987314318
 20
230.6665138374717
 30
0.0
  0
LINE
  5
CC
330
1F
100
AcDbEntity
  8
0
  6
Continuous
 62
     7
370
    25
100
AcDbLine
 10
-133.2110332541
 20
237.0949519231
 30
0.0
 11
-147.2110332541
 21
237.0949519231
 31
0.0
  0
LINE
  5
CD
330
1F
100
AcDbEntity
  8
0
  6
Continuous
 62
     7
370
    25
100
AcDbLine
 10
-321.2110332541
 20
237.0949519231
 30
0.0
 11
-335.2110332541
 21
237.0949519231
 31
0.0
  0
LINE
  5
CE
330
1F
100
AcDbEntity
  8
0
  6
Continuous
 62
     1
370
    25
100
AcDbLine
 10
-221.7110332541
 20
231.5949519231
 30
0.0
 11
-221.7110332541
 21
-39.8050480769
 31
0.0
  0
LINE
  5
CF
330
1F
100
AcDbEntity
  8
0
  6
Continuous
 62
     1
370
    25
100
AcDbLine
 10
-246.7110332541
 20
231.5949519231
 30
0.0
 11
-246.7110332541
 21
-39.8050480769
 31
0.0
  0
ARC
  5
D0
330
1F
100
AcDbEntity
  8
0
  6
Continuous
 62
     7
370
    25
100
AcDbCircle
 10
-4098.4612125039
 20
-272.8365802626
 30
0.0
 40
4371.62500000002
100
AcDbArc
 50
0.0
 51
1.2255314445
  0
ARC
  5
D1
330
1F
100
AcDbEntity
  8
0
  6
Continuous
 62
     7
370
    25
100
AcDbCircle
 10
4373.3887874962
 20
-272.8365802626
 30
0.0
 40
4371.625000000019
100
AcDbArc
 50
178.7744685555
 51
180.0
  0
LINE
  5
D2
330
1F
100
AcDbEntity
  8
0
  6
Continuous
 62
     7
370
    25
100
AcDbLine
 10
1.7637874962
 20
-272.8365802626
 30
0.0
 11
1.7637874962
 21
-297.8365802626
 31
0.0
  0
LINE
  5
D3
330
1F
100
AcDbEntity
  8
0
  6
Continuous
 62
     7
370
    25
100
AcDbLine
 10
273.1637874962
 20
-297.8365802626
 30
0.0
 11
273.1637874962
 21
-272.8365802626
 31
0.0
  0
ARC
  5
D4
330
1F
100
AcDbEntity
  8
0
  6
Continuous
 62
     7
370
    25
100
AcDbCircle
 10
-4098.4612125039
 20
-297.8365802626
 30
0.0
 40
4371.62500000002
100
AcDbArc
 50
358.7744685555
 51
0.0
  0
ARC
  5
D5
330
1F
100
AcDbEntity
  8
0
  6
Continuous
 62
     7
370
    25
100
AcDbCircle
 10
4373.3887874962
 20
-297.8365802626
 30
0.0
 40
4371.625000000019
100
AcDbArc
 50
180.0
 51
181.2255314445
  0
CIRCLE
  5
D6
330
1F
100
AcDbEntity
  8
0
  6
Continuous
 62
     7
370
    25
100
AcDbCircle
 10
137.4637874962
 20
-191.3365802626
 30
0.0
 40
5.0
  0
CIRCLE
  5
D7
330
1F
100
AcDbEntity
  8
0
  6
Continuous
 62
     7
370
    25
100
AcDbCircle
 10
137.4637874962
 20
-191.3365802626
 30
0.0
 40
7.000000000000028
  0
CIRCLE
  5
D8
330
1F
100
AcDbEntity
  8
0
  6
Continuous
 62
     7
370
    25
100
AcDbCircle
 10
137.4637874962
 20
-379.3365802626
 30
0.0
 40
7.000000000000057
  0
CIRCLE
  5
D9
330
1F
100
AcDbEntity
  8
0
  6
Continuous
 62
     7
370
    25
100
AcDbCircle
 10
137.4637874962
 20
-379.3365802626
 30
0.0
 40
5.0
  0
LINE
  5
DA
330
1F
100
AcDbEntity
  8
0
  6
Continuous
 62
     7
370
    25
100
AcDbLine
 10
2.7637874962
 20
-179.3365802626
 30
0.0
 11
272.1637874962
 21
-179.3365802626
 31
0.0
  0
LINE
  5
DB
330
1F
100
AcDbEntity
  8
0
  6
Continuous
 62
     7
370
    25
100
AcDbLine
 10
2.7637874962
 20
-391.3365802626
 30
0.0
 11
272.1637874962
 21
-391.3365802626
 31
0.0
  0
LINE
  5
DC
330
1F
100
AcDbEntity
  8
0
  6
Continuous
 62
     1
370
    25
100
AcDbLine
 10
1.7637874962
 20
-272.8365802626
 30
0.0
 11
273.1637874962
 21
-272.8365802626
 31
0.0
  0
LINE
  5
DD
330
1F
100
AcDbEntity
  8
0
  6
Continuous
 62
     1
370
    25
100
AcDbLine
 10
1.7637874962
 20
-297.8365802626
 30
0.0
 11
273.1637874962
 21
-297.8365802626
 31
0.0
  0
INSERT
  5
E9
330
1F
100
AcDbEntity
  8
FORMAT
 62
     7
100
AcDbBlockReference
  2
SW_CENTERMARKSYMBOL_1
 10
137.4637874962
 20
-191.3365802626
 30
0.0
  0
INSERT
  5
F5
330
1F
100
AcDbEntity
  8
FORMAT
 62
     7
100
AcDbBlockReference
  2
SW_CENTERMARKSYMBOL_2
 10
137.4637874962
 20
-379.3365802626
 30
0.0
  0
SPLINE
  5
F6
330
1F
100
AcDbEntity
  8
0
  6
Continuous
 62
     7
370
    25
100
AcDbSpline
210
0.0
220
0.0
230
1.0
 70
     8
 71
     3
 72
    11
 73
     7
 74
     0
 42
0.00000001
 43
0.00000001
 40
0.0
 40
0.0
 40
0.0
 40
0.0
 40
0.223805825398668
 40
0.5898403890522635
 40
0.9558064102861571
 40
1.0
 40
1.0
 40
1.0
 40
1.0
 10
466.5757144649129
 20
-190.6701863582945
 30
0.0
 10
461.5646005437668
 20
-193.5589360018313
 30
0.0
 10
448.3578067546913
 20
-201.172237445541
 30
0.0
 10
427.123695632003
 20
-213.7923466058608
 30
0.0
 10
409.9244066109791
 20
-224.1153089508312
 30
0.0
 10
400.9114763958536
 20
-229.6892126832163
 30
0.0
 10
399.9403575206275
 20
-230.2897857481368
 30
0.0
  0
SPLINE
  5
F7
330
1F
100
AcDbEntity
  8
0
  6
Continuous
 62
     7
370
    25
100
AcDbSpline
210
0.0
220
0.0
230
1.0
 70
     8
 71
     3
 72
    11
 73
     7
 74
     0
 42
0.00000001
 43
0.00000001
 40
0.0
 40
0.0
 40
0.0
 40
0.0
 40
0.1254912498840821
 40
0.4916168503721182
 40
0.8577259259222446
 40
1.0
 40
1.0
 40
1.0
 40
1.0
 10
534.5910578685067
 20
-463.5377348378367
 30
0.0
 10
537.4447482467281
 20
-461.9982650741561
 30
0.0
 10
548.6241912515136
 20
-455.9673324221756
 30
0.0
 10
567.992448504328
 20
-445.1861089374563
 30
0.0
 10
587.6883346087052
 20
-434.1005752028952
 30
0.0
 10
599.0522002111411
 20
-427.505460627104
 30
0.0
 10
602.2324461687698
 20
-425.6597782507424
 30
0.0
  0
LINE
  5
F8
330
1F
100
AcDbEntity
  8
0
  6
Continuous
 62
     7
370
    25
100
AcDbLine
 10
484.2372866037
 20
-180.4370371064
 30
0.0
 11
466.559617074
 21
-190.6421385042
 31
0.0
  0
LINE
  5
F9
330
1F
100
AcDbEntity
  8
0
  6
Continuous
 62
     7
370
    25
100
AcDbLine
 10
602.2485890927
 20
-425.6877997543
 30
0.0
 11
619.9262586224
 21
-415.4826983565
 31
0.0
  0
SPLINE
  5
FA
330
1F
100
AcDbEntity
  8
0
  6
Continuous
 62
     7
370
    25
100
AcDbSpline
210
0.0
220
0.0
230
1.0
 70
     8
 71
     3
 72
    11
 73
     7
 74
     0
 42
0.00000001
 43
0.00000001
 40
0.0
 40
0.0
 40
0.0
 40
0.0
 40
0.1254935049846071
 40
0.4916178772698538
 40
0.8577257246742042
 40
1.0
 40
1.0
 40
1.0
 40
1.0
 10
551.8950002826458
 20
-142.5870033297168
 30
0.0
 10
549.0412490242402
 20
-144.1265058736048
 30
0.0
 10
537.861745064369
 20
-150.1574711635661
 30
0.0
 10
518.4934271015371
 20
-160.9387277541499
 30
0.0
 10
498.7975258608129
 20
-172.0242703560175
 30
0.0
 10
487.4336451130983
 20
-178.6193937714258
 30
0.0
 10
484.2533839945773
 20
-180.4650849605109
 30
0.0
  0
SPLINE
  5
FB
330
1F
100
AcDbEntity
  8
0
  6
Continuous
 62
     7
370
    25
100
AcDbSpline
210
0.0
220
0.0
230
1.0
 70
     8
 71
     3
 72
    11
 73
     7
 74
     0
 42
0.00000001
 43
0.00000001
 40
0.0
 40
0.0
 40
0.0
 40
0.0
 40
0.2238027608030413
 40
0.5898312025873303
 40
0.9557911030985338
 40
1.0
 40
1.0
 40
1.0
 40
1.0
 10
619.9101156984335
 20
-415.4546768529587
 30
0.0
 10
624.921244792891
 20
-412.5659184220062
 30
0.0
 10
638.1280537236597
 20
-404.9526081429052
 30
0.0
 10
659.3621808042205
 20
-392.3324914216835
 30
0.0
 10
676.5618229725976
 20
-382.0093118529151
 30
0.0
 10
685.5751049340306
 20
-376.4351886926881
 30
0.0
 10
686.5465763270042
 20
-375.834397414412
 30
0.0
  0
LINE
  5
FC
330
1F
100
AcDbEntity
  8
0
  6
Continuous
 62
     7
370
    25
100
AcDbLine
 10
483.7749004166
 20
-231.2512193276
 30
0.0
 11
483.7749004166
 21
-226.1380370478
 31
0.0
  0
LINE
  5
FD
330
1F
100
AcDbEntity
  8
0
  6
Continuous
 62
     7
370
    25
100
AcDbLine
 10
469.7749004166
 20
-226.1380370478
 30
0.0
 11
469.7749004166
 21
-231.4007248382
 31
0.0
  0
LINE
  5
FE
330
1F
100
AcDbEntity
  8
0
  6
Continuous
 62
     7
370
    25
100
AcDbLine
 10
616.7109752797
 20
-154.6577096951
 30
0.0
 11
616.7109752797
 21
-149.3956745364
 31
0.0
  0
LINE
  5
FF
330
1F
100
AcDbEntity
  8
0
  6
Continuous
 62
     7
370
    25
100
AcDbLine
 10
602.7109752797
 20
-149.3956745364
 30
0.0
 11
602.7109752797
 21
-154.5081065629
 31
0.0
  0
LWPOLYLINE
  5
100
330
1F
100
AcDbEntity
  8
0
  6
Continuous
 62
     7
370
    25
100
AcDbPolyline
 90
      133
 70
   128
 43
0.0
 10
373.0423356166
 20
-291.3469620257
 10
373.1502184824
 20
-286.1757994674
 10
373.4736226906
 20
-281.1409101611
 10
374.0118156266
 20
-276.2536997504
 10
374.7635781103
 20
-271.525239339
 10
375.7272071578
 20
-266.9662404104
 10
376.9005198395
 20
-262.5870305635
 10
378.2808582246
 20
-258.3975301172
 10
379.865095403
 20
-254.4072296374
 10
381.6496425677
 20
-250.6251684382
 10
383.6304571454
 20
-247.0599141046
 10
385.8030519542
 20
-243.7195430843
 10
388.1625053679
 20
-240.6116223922
 10
390.7034724656
 20
-237.7431924681
 10
393.4201971397
 20
-235.1207512285
 10
396.3065251349
 20
-232.7502393462
 10
399.3559179901
 20
-230.6370267932
 10
402.5614678496
 20
-228.7859006754
 10
405.9159131119
 20
-227.2010543889
 10
409.4116548796
 20
-225.8860781203
 10
413.0407741734
 20
-224.8439507139
 10
416.7950498706
 20
-224.0770329233
 10
420.6659773295
 20
-223.5870620641
 10
424.6447876542
 20
-223.3751480777
 10
428.7224675597
 20
-223.4417710176
 10
432.8897797894
 20
-223.7867799614
 10
437.1372840408
 20
-224.4093933528
 10
441.4553583506
 20
-225.3082007723
 10
445.8342208918
 20
-226.4811661319
 10
450.2639521321
 20
-227.9256322878
 10
454.7345173057
 20
-229.6383270598
 10
459.2357891445
 20
-231.6153706431
 10
463.75757082
 20
-233.8522843982
 10
468.2896190424
 20
-236.344000996
 10
472.8216672648
 20
-239.0848758969
 10
477.3434489403
 20
-242.0687001378
 10
481.8447207791
 20
-245.2887143971
 10
486.3152859527
 20
-248.7376243068
 10
490.745017193
 20
-252.4076169766
 10
495.1238797342
 20
-256.2903786928
 10
499.441954044
 20
-260.3771137512
 10
503.6894582954
 20
-264.6585643825
 10
507.8567705251
 20
-269.125031724
 10
511.9344504306
 20
-273.7663977906
 10
515.9132607553
 20
-278.5721483953
 10
519.7841882142
 20
-283.5313969673
 10
523.5384639114
 20
-288.6329092135
 10
527.1675832052
 20
-293.8651285679
 10
530.6633249729
 20
-299.2162023708
 10
534.0177702353
 20
-304.6740087188
 10
537.2233200947
 20
-310.2261839253
 10
540.2727129499
 20
-315.8601505276
 10
543.1590409451
 20
-321.5631457793
 10
545.8757656192
 20
-327.3222505618
 10
548.416732717
 20
-333.1244186506
 10
550.7761861306
 20
-338.9565062686
 10
552.9487809394
 20
-344.8053018617
 10
554.9295955171
 20
-350.6575560267
 10
556.7141426818
 20
-356.5000115256
 10
558.2983798602
 20
-362.3194333175
 10
559.6787182454
 20
-368.1026385404
 10
560.852030927
 20
-373.8365263744
 10
561.8156599745
 20
-379.5081077193
 10
562.5674224582
 20
-385.1045346192
 10
563.1056153942
 20
-390.6131293671
 10
563.4290196024
 20
-396.0214132243
 10
563.5369024682
 20
-401.3171346882
 10
563.4290196024
 20
-406.4882972466
 10
563.1056153942
 20
-411.5231865529
 10
562.5674224582
 20
-416.4103969635
 10
561.8156599745
 20
-421.1388573749
 10
560.852030927
 20
-425.6978563036
 10
559.6787182454
 20
-430.0770661504
 10
558.2983798602
 20
-434.2665665967
 10
556.7141426818
 20
-438.2568670765
 10
554.9295955171
 20
-442.0389282757
 10
552.9487809394
 20
-445.6041826094
 10
550.7761861306
 20
-448.9445536296
 10
548.416732717
 20
-452.0524743218
 10
545.8757656192
 20
-454.9209042458
 10
543.1590409451
 20
-457.5433454854
 10
540.2727129499
 20
-459.9138573677
 10
537.2233200947
 20
-462.0270699208
 10
534.0177702353
 20
-463.8781960386
 10
530.6633249729
 20
-465.463042325
 10
527.1675832052
 20
-466.7780185936
 10
523.5384639114
 20
-467.820146
 10
519.7841882142
 20
-468.5870637906
 10
515.9132607553
 20
-469.0770346499
 10
511.9344504306
 20
-469.2889486362
 10
507.8567705251
 20
-469.2223256963
 10
503.6894582954
 20
-468.8773167526
 10
499.441954044
 20
-468.2547033612
 10
495.1238797342
 20
-467.3558959417
 10
490.745017193
 20
-466.1829305821
 10
486.3152859527
 20
-464.7384644261
 10
481.8447207791
 20
-463.0257696542
 10
477.3434489403
 20
-461.0487260709
 10
472.8216672648
 20
-458.8118123158
 10
468.2896190424
 20
-456.320095718
 10
463.75757082
 20
-453.579220817
 10
459.2357891445
 20
-450.5953965761
 10
454.7345173057
 20
-447.3753823168
 10
450.2639521321
 20
-443.9264724072
 10
445.8342208918
 20
-440.2564797374
 10
441.4553583506
 20
-436.3737180212
 10
437.1372840408
 20
-432.2869829628
 10
432.8897797894
 20
-428.0055323314
 10
428.7224675597
 20
-423.5390649899
 10
424.6447876542
 20
-418.8976989233
 10
420.6659773295
 20
-414.0919483186
 10
416.7950498706
 20
-409.1326997466
 10
413.0407741734
 20
-404.0311875004
 10
409.4116548796
 20
-398.798968146
 10
405.9159131119
 20
-393.4478943432
 10
402.5614678495
 20
-387.9900879951
 10
399.3559179901
 20
-382.4379127886
 10
396.3065251349
 20
-376.8039461863
 10
393.4201971397
 20
-371.1009509346
 10
390.7034724656
 20
-365.3418461521
 10
388.1625053679
 20
-359.5396780634
 10
385.8030519542
 20
-353.7075904453
 10
383.6304571454
 20
-347.8587948522
 10
381.6496425677
 20
-342.0065406873
 10
379.865095403
 20
-336.1640851884
 10
378.2808582246
 20
-330.3446633965
 10
376.9005198395
 20
-324.5614581736
 10
375.7272071578
 20
-318.8275703396
 10
374.7635781103
 20
-313.1559889947
 10
374.0118156266
 20
-307.5595620948
 10
373.4736226906
 20
-302.0509673468
 10
373.1502184824
 20
-296.6426834897
 10
373.0423356166
 20
-291.3469620257
  0
SPLINE
  5
101
330
1F
100
AcDbEntity
  8
0
  6
Continuous
 62
     7
370
    25
100
AcDbSpline
210
0.0
220
0.0
230
1.0
 70
     8
 71
     3
 72
    12
 73
     8
 74
     0
 42
0.00000001
 43
0.00000001
 40
0.0
 40
0.0
 40
0.0
 40
0.0
 40
0.2451126177828491
 40
0.4902286555023533
 40
0.7352671344133165
 40
0.9803458511671456
 40
1.0
 40
1.0
 40
1.0
 40
1.0
 10
475.4221982020032
 20
-235.3519635831281
 30
0.0
 10
474.6661889417887
 20
-235.2123925194267
 30
0.0
 10
473.1541598731316
 20
-234.9332484446572
 30
0.0
 10
471.3142629488602
 20
-234.0102722340672
 30
0.0
 10
470.1619880898124
 20
-232.8447686620723
 30
0.0
 10
469.6656552020636
 20
-231.9157973901448
 30
0.0
 10
469.7944987824536
 20
-231.4385536474914
 30
0.0
 10
469.804064315239
 20
-231.4031223853892
 30
0.0
  0
SPLINE
  5
102
330
1F
100
AcDbEntity
  8
0
  6
Continuous
 62
     7
370
    25
100
AcDbSpline
210
0.0
220
0.0
230
1.0
 70
     8
 71
     3
 72
    13
 73
     9
 74
     0
 42
0.00000001
 43
0.00000001
 40
0.0
 40
0.0
 40
0.0
 40
0.0
 40
0.1147785120469473
 40
0.306022440631266
 40
0.497180475243433
 40
0.6880496340779855
 40
0.878820797587646
 40
1.0
 40
1.0
 40
1.0
 40
1.0
 10
483.6798198872476
 20
-231.2493562750751
 30
0.0
 10
483.6893645167484
 20
-231.5375600983238
 30
0.0
 10
483.7148124055793
 20
-232.30596906109
 30
0.0
 10
482.8724557424179
 20
-233.4850239091199
 30
0.0
 10
481.3394119606828
 20
-234.5808563319626
 30
0.0
 10
479.2617647205431
 20
-235.277690131673
 30
0.0
 10
477.1898444693703
 20
-235.5055008629896
 30
0.0
 10
475.916742976793
 20
-235.3949196093946
 30
0.0
 10
475.4221982020032
 20
-235.3519635831281
 30
0.0
  0
LWPOLYLINE
  5
103
330
1F
100
AcDbEntity
  8
0
  6
Continuous
 62
     7
370
    25
100
AcDbPolyline
 90
      122
 70
   128
 43
0.0
 10
388.2451314121
 20
-300.1233492278
 10
388.3530243056
 20
-295.3880389572
 10
388.6764121259
 20
-290.7900647291
 10
389.2144230766
 20
-286.3418218692
 10
389.9656067753
 20
-282.0553020538
 10
390.9279381636
 20
-277.9420609824
 10
392.0988229662
 20
-274.0131872258
 10
393.4751046847
 20
-270.279272333
 10
395.0530731068
 20
-266.7503822784
 10
396.8284743087
 20
-263.4360303258
 10
398.7965221227
 20
-260.3451513819
 10
400.9519110397
 20
-257.4860779099
 10
403.2888305124
 20
-254.8665174666
 10
405.800980619
 20
-252.4935319236
 10
408.4815890469
 20
-250.3735184305
 10
411.3234293497
 20
-248.5121921688
 10
414.3188404285
 20
-246.9145709452
 10
417.4597471845
 20
-245.5849616638
 10
420.7376822885
 20
-244.5269487163
 10
424.1438090069
 20
-243.7433843185
 10
427.6689450242
 20
-243.2363808216
 10
431.3035871971
 20
-243.0073050172
 10
435.0379371727
 20
-243.0567744534
 10
438.8619278039
 20
-243.3846557691
 10
442.7652502879
 20
-243.9900650544
 10
446.7373819574
 20
-244.8713702329
 10
450.7676146477
 20
-246.0261954616
 10
454.845083564
 20
-247.4514275358
 10
458.958796571
 20
-249.143224282
 10
463.0976638258
 20
-251.097024915
 10
467.2505276738
 20
-253.307562334
 10
471.4061927285
 20
-255.7688773207
 10
475.5534560515
 20
-258.4743346052
 10
479.6811373542
 20
-261.416640753
 10
483.7781091375
 20
-264.5878638268
 10
487.8333266898
 20
-267.9794547699
 10
491.8358578616
 20
-271.5822704528
 10
495.7749125365
 20
-275.3865983213
 10
499.6398717194
 20
-279.3821825801
 10
503.4203161638
 20
-283.5582518405
 10
507.1060544597
 20
-287.9035481581
 10
510.6871505084
 20
-292.4063573821
 10
514.1539503081
 20
-297.0545407351
 10
517.4971079794
 20
-301.8355675365
 10
520.7076109603
 20
-306.7365489833
 10
523.7768043023
 20
-311.744272896
 10
526.6964140029
 20
-316.8452393363
 10
529.4585693105
 20
-322.0256970006
 10
532.0558239426
 20
-327.2716802908
 10
534.4811761601
 20
-332.5690469634
 10
536.7280876421
 20
-337.9035162546
 10
538.7905011125
 20
-343.2607073782
 10
540.6628566692
 20
-348.626178294
 10
542.3401067727
 20
-353.9854646412
 10
543.8177298533
 20
-359.3241187311
 10
545.0917425003
 20
-364.6277484963
 10
546.1587102008
 20
-369.8820562885
 10
547.0157565987
 20
-375.0728774229
 10
547.6605712484
 20
-380.1862183635
 10
548.0914158434
 20
-385.2082944471
 10
548.3071289031
 20
-390.1255670445
 10
548.3071289031
 20
-394.924780058
 10
548.0914158434
 20
-399.592995658
 10
547.6605712484
 20
-404.1176291605
 10
547.0157565987
 20
-408.4864829535
 10
546.1587102008
 20
-412.6877793795
 10
545.0917425003
 20
-416.7101924863
 10
543.8177298533
 20
-420.5428785592
 10
542.3401067727
 20
-424.1755053541
 10
540.6628566692
 20
-427.5982799515
 10
538.7905011125
 20
-430.8019751563
 10
536.7280876421
 20
-433.7779543724
 10
534.4811761601
 20
-436.5181948862
 10
532.0558239426
 20
-439.0153094936
 10
529.4585693105
 20
-441.2625664152
 10
526.6964140029
 20
-443.2539074436
 10
523.7768043023
 20
-444.9839642755
 10
520.7076109603
 20
-446.4480729834
 10
517.4971079794
 20
-447.6422865893
 10
514.1539503081
 20
-448.5633857043
 10
510.6871505084
 20
-449.208887208
 10
507.1060544597
 20
-449.5770509426
 10
503.4203161638
 20
-449.6668844037
 10
499.6398717194
 20
-449.4781454162
 10
495.7749125365
 20
-449.011342787
 10
491.8358578616
 20
-448.2677349335
 10
487.8333266898
 20
-447.2493264909
 10
483.7781091375
 20
-445.9588629084
 10
479.6811373542
 20
-444.3998230477
 10
475.5534560515
 20
-442.5764098046
 10
471.4061927285
 20
-440.4935387788
 10
467.2505276738
 20
-438.1568250223
 10
463.0976638258
 20
-435.5725679024
 10
458.958796571
 20
-432.7477341193
 10
454.845083564
 20
-429.6899389254
 10
450.7676146477
 20
-426.4074255961
 10
446.7373819574
 20
-422.9090432068
 10
442.7652502879
 20
-419.2042227781
 10
438.8619278039
 20
-415.3029518507
 10
435.0379371727
 20
-411.2157475615
 10
431.3035871971
 20
-406.9536282905
 10
427.6689450242
 20
-402.5280839577
 10
424.1438090069
 20
-397.9510450482
 10
420.7376822885
 20
-393.2348504498
 10
417.4597471845
 20
-388.3922141893
 10
414.3188404285
 20
-383.4361911578
 10
411.3234293497
 20
-378.3801419173
 10
408.4815890469
 20
-373.2376966825
 10
405.800980619
 20
-368.0227185767
 10
403.2888305124
 20
-362.7492662589
 10
400.9519110397
 20
-357.4315560241
 10
398.7965221227
 20
-352.083923479
 10
396.8284743087
 20
-346.7207848955
 10
395.0530731068
 20
-341.3565983471
 10
393.4751046847
 20
-336.0058247322
 10
392.0988229662
 20
-330.6828887905
 10
390.9279381636
 20
-325.4021402163
 10
389.9656067753
 20
-320.1778149741
 10
389.2144230766
 20
-315.0239969211
 10
388.6764121259
 20
-309.9545798396
 10
388.3530243056
 20
-304.9832299817
 10
388.2451314121
 20
-300.1233492278
  0
LWPOLYLINE
  5
104
330
1F
100
AcDbEntity
  8
0
  6
Continuous
 62
     7
370
    25
100
AcDbPolyline
 90
       17
 70
   128
 43
0.0
 10
551.8779333416
 20
-142.5613749367
 10
552.4681054611
 20
-142.2466408222
 10
555.8225507234
 20
-140.6617945357
 10
559.3182924912
 20
-139.3468182671
 10
562.9474117849
 20
-138.3046908607
 10
566.7016874822
 20
-137.5377730701
 10
570.572614941
 20
-137.0478022109
 10
574.5514252657
 20
-136.8358882245
 10
578.6291051712
 20
-136.9025111644
 10
582.7964174009
 20
-137.2475201082
 10
587.0439216523
 20
-137.8701334996
 10
591.3619959622
 20
-138.768940919
 10
595.7408585033
 20
-139.9419062787
 10
600.1705897437
 20
-141.3863724346
 10
604.6411549172
 20
-143.0990672065
 10
609.142426756
 20
-145.0761107899
 10
609.7343072283
 20
-145.3546829993
  0
LWPOLYLINE
  5
105
330
1F
100
AcDbEntity
  8
0
  6
Continuous
 62
     7
370
    25
100
AcDbPolyline
 90
       52
 70
   128
 43
0.0
 10
616.6653788443
 20
-148.9351917515
 10
618.196256654
 20
-149.8047411428
 10
622.7283048764
 20
-152.5456160437
 10
627.2500865519
 20
-155.5294402846
 10
631.7513583907
 20
-158.7494545439
 10
636.2219235642
 20
-162.1983644536
 10
640.6516548046
 20
-165.8683571234
 10
645.0305173457
 20
-169.7511188395
 10
649.3485916556
 20
-173.837853898
 10
653.596095907
 20
-178.1193045293
 10
657.7634081367
 20
-182.5857718708
 10
661.8410880422
 20
-187.2271379374
 10
665.8198983669
 20
-192.0328885421
 10
669.6908258257
 20
-196.9921371141
 10
673.445101523
 20
-202.0936493603
 10
677.0742208167
 20
-207.3258687147
 10
680.5699625845
 20
-212.6769425176
 10
683.9244078468
 20
-218.1347488656
 10
687.1299577063
 20
-223.6869240721
 10
690.1793505614
 20
-229.3208906744
 10
693.0656785567
 20
-235.0238859261
 10
695.7824032308
 20
-240.7829907086
 10
698.3233703285
 20
-246.5851587974
 10
700.6828237422
 20
-252.4172464154
 10
702.8554185509
 20
-258.2660420085
 10
704.8362331287
 20
-264.1182961735
 10
706.6207802934
 20
-269.9607516723
 10
708.2050174717
 20
-275.7801734643
 10
709.5853558569
 20
-281.5633786872
 10
710.7586685386
 20
-287.2972665212
 10
711.7222975861
 20
-292.9688478661
 10
712.4740600697
 20
-298.5652747659
 10
713.0122530057
 20
-304.0738695139
 10
713.3356572139
 20
-309.4821533711
 10
713.4435400798
 20
-314.777874835
 10
713.3356572139
 20
-319.9490373934
 10
713.0122530057
 20
-324.9839266997
 10
712.4740600697
 20
-329.8711371103
 10
711.7222975861
 20
-334.5995975217
 10
710.7586685386
 20
-339.1585964503
 10
709.5853558569
 20
-343.5378062972
 10
708.2050174717
 20
-347.7273067435
 10
706.6207802934
 20
-351.7176072233
 10
704.8362331287
 20
-355.4996684225
 10
702.8554185509
 20
-359.0649227562
 10
700.6828237422
 20
-362.4052937764
 10
698.3233703285
 20
-365.5132144686
 10
695.7824032308
 20
-368.3816443926
 10
693.0656785567
 20
-371.0040856322
 10
690.1793505614
 20
-373.3745975145
 10
687.1299577063
 20
-375.4878100676
 10
686.5520839029
 20
-375.8479584662
  0
SPLINE
  5
106
330
1F
100
AcDbEntity
  8
0
  6
Continuous
 62
     7
370
    25
100
AcDbSpline
210
0.0
220
0.0
230
1.0
 70
     8
 71
     3
 72
    12
 73
     8
 74
     0
 42
0.00000001
 43
0.00000001
 40
0.0
 40
0.0
 40
0.0
 40
0.0
 40
0.2436833880036564
 40
0.4873805658359733
 40
0.7307870948927389
 40
0.9743147662517434
 40
1.0
 40
1.0
 40
1.0
 40
1.0
 10
608.4032874685861
 20
-158.4388116328056
 30
0.0
 10
607.6466768120978
 20
-158.2908106529445
 30
0.0
 10
606.1334126831896
 20
-157.9948003179771
 30
0.0
 10
604.2850432535989
 20
-157.0741301985137
 30
0.0
 10
603.1161679944672
 20
-155.9334195800164
 30
0.0
 10
602.6091086867541
 20
-155.0221797495912
 30
0.0
 10
602.7360959877605
 20
-154.5555048923967
 30
0.0
 10
602.7482116718437
 20
-154.5109800848408
 30
0.0
  0
SPLINE
  5
107
330
1F
100
AcDbEntity
  8
0
  6
Continuous
 62
     7
370
    25
100
AcDbSpline
210
0.0
220
0.0
230
1.0
 70
     8
 71
     3
 72
    13
 73
     9
 74
     0
 42
0.00000001
 43
0.00000001
 40
0.0
 40
0.0
 40
0.0
 40
0.0
 40
0.1112705850906773
 40
0.3029546458539122
 40
0.4944839176968627
 40
0.6859623680832052
 40
0.8776654431302283
 40
1.0
 40
1.0
 40
1.0
 40
1.0
 10
616.6142150772591
 20
-154.6561998828174
 30
0.0
 10
616.6261287932266
 20
-154.925051738421
 30
0.0
 10
616.6585660775168
 20
-155.6570503940871
 30
0.0
 10
615.8330340568466
 20
-156.7704161361833
 30
0.0
 10
614.3157536735698
 20
-157.7999234304335
 30
0.0
 10
612.2487199709464
 20
-158.4354339741364
 30
0.0
 10
610.1783077178038
 20
-158.6192008771155
 30
0.0
 10
608.9009046889382
 20
-158.4893827710078
 30
0.0
 10
608.4032874685861
 20
-158.4388116328056
 30
0.0
  0
LWPOLYLINE
  5
108
330
1F
100
AcDbEntity
  8
0
  6
Continuous
 62
     7
370
    25
100
AcDbPolyline
 90
       31
 70
   128
 43
0.0
 10
481.7246478849
 20
-223.2806086564
 10
482.6455943923
 20
-223.9371430907
 10
483.3099634021
 20
-224.689867152
 10
483.6887188008
 20
-225.5058831869
 10
483.7653071599
 20
-226.3495273788
 10
483.5363812007
 20
-227.1839284285
 10
483.011946086
 20
-227.9726190061
 10
482.2149221468
 20
-228.6811295488
 10
481.180143154
 20
-229.2784947461
 10
479.9528339148
 20
-229.7386068724
 10
478.5866337324
 20
-230.0413568199
 10
477.1412521103
 20
-230.1735129631
 10
475.6798591614
 20
-230.1292994445
 10
474.2663247698
 20
-229.910648607
 10
472.9624271715
 20
-229.5271165413
 10
471.8251529483
 20
-228.9954654391
 10
470.904206441
 20
-228.3389310048
 10
470.2398374312
 20
-227.5862069435
 10
469.8610820325
 20
-226.7701909087
 10
469.7844936734
 20
-225.9265467167
 10
470.0134196326
 20
-225.092145667
 10
470.5378547473
 20
-224.3034550894
 10
471.3348786864
 20
-223.5949445467
 10
472.3696576793
 20
-222.9975793494
 10
473.5969669185
 20
-222.5374672232
 10
474.9631671009
 20
-222.2347172756
 10
476.4085487229
 20
-222.1025611324
 10
477.8699416719
 20
-222.146774651
 10
479.2834760635
 20
-222.3654254885
 10
480.5873736617
 20
-222.7489575542
 10
481.7246478849
 20
-223.2806086564
  0
LWPOLYLINE
  5
109
330
1F
100
AcDbEntity
  8
0
  6
Continuous
 62
     7
370
    25
100
AcDbPolyline
 90
       26
 70
   128
 43
0.0
 10
480.3104343226
 20
-224.0970167682
 10
481.0786105517
 20
-224.6687202765
 10
481.576368845
 20
-225.3327463613
 10
481.7724332185
 20
-226.0473718216
 10
481.6544842263
 20
-226.7676941114
 10
481.2299330376
 20
-227.4484527323
 10
480.5254557648
 20
-228.0468731163
 10
479.5853173059
 20
-228.5253543099
 10
478.4685900179
 20
-228.85383158
 10
477.2454419832
 20
-229.0116654917
 10
475.9927280914
 20
-228.9889387597
 10
474.7891609635
 20
-228.7870793884
 10
473.7103651484
 20
-228.4187709442
 10
472.8241253548
 20
-227.9071556014
 10
472.1861272882
 20
-227.2843800335
 10
471.8364587137
 20
-226.5895755198
 10
471.7970905936
 20
-225.8663991833
 10
472.0704965719
 20
-225.1602908529
 10
472.6394975453
 20
-224.5156179118
 10
473.46834109
 20
-223.9728875318
 10
474.5049479179
 20
-223.5662014588
 10
475.6841842097
 20
-223.3211132743
 10
476.931954212
 20
-223.2530227705
 10
478.1698559468
 20
-223.3662083241
 10
479.3201074954
 20
-223.6535580704
 10
480.3104343226
 20
-224.0970167682
  0
SPLINE
  5
10A
330
1F
100
AcDbEntity
  8
0
  6
Continuous
 62
     7
370
    25
100
AcDbSpline
210
0.0
220
0.0
230
1.0
 70
     8
 71
     3
 72
    11
 73
     7
 74
     0
 42
0.00000001
 43
0.00000001
 40
0.0
 40
0.0
 40
0.0
 40
0.0
 40
0.0199946152774707
 40
0.3793701560448954
 40
0.7390307172103381
 40
1.0
 40
1.0
 40
1.0
 40
1.0
 10
474.5549546749062
 20
-228.7162879157578
 30
0.0
 10
474.5803213299849
 20
-228.7052243190363
 30
0.0
 10
475.0616185073501
 20
-228.4953078812148
 30
0.0
 10
476.2526381069729
 20
-228.348571822261
 30
0.0
 10
477.8029202698766
 20
-228.3138485460756
 30
0.0
 10
478.6778496047648
 20
-228.552666972272
 30
0.0
 10
479.0457495426124
 20
-228.653087978462
 30
0.0
  0
LWPOLYLINE
  5
10B
330
1F
100
AcDbEntity
  8
0
  6
Continuous
 62
     7
370
    25
100
AcDbPolyline
 90
       31
 70
   128
 43
0.0
 10
604.7612278114
 20
-152.2531029278
 10
603.8402813041
 20
-151.5965684935
 10
603.1759122942
 20
-150.8438444322
 10
602.7971568955
 20
-150.0278283973
 10
602.7205685364
 20
-149.1841842054
 10
602.9494944957
 20
-148.3497831557
 10
603.4739296104
 20
-147.5610925781
 10
604.2709535495
 20
-146.8525820354
 10
605.3057325424
 20
-146.2552168381
 10
606.5330417815
 20
-145.7951047118
 10
607.899241964
 20
-145.4923547643
 10
609.344623586
 20
-145.3601986211
 10
610.806016535
 20
-145.4044121397
 10
612.2195509265
 20
-145.6230629772
 10
613.5234485248
 20
-146.0065950429
 10
614.660722748
 20
-146.5382461451
 10
615.5816692553
 20
-147.1947805794
 10
616.2460382652
 20
-147.9475046407
 10
616.6247936639
 20
-148.7635206755
 10
616.701382023
 20
-149.6071648675
 10
616.4724560637
 20
-150.4415659172
 10
615.948020949
 20
-151.2302564948
 10
615.1509970099
 20
-151.9387670375
 10
614.1162180171
 20
-152.5361322348
 10
612.8889087779
 20
-152.996244361
 10
611.5227085954
 20
-153.2989943086
 10
610.0773269734
 20
-153.4311504518
 10
608.6159340244
 20
-153.3869369332
 10
607.2023996329
 20
-153.1682860957
 10
605.8985020346
 20
-152.78475403
 10
604.7612278114
 20
-152.2531029278
  0
LWPOLYLINE
  5
10C
330
1F
100
AcDbEntity
  8
0
  6
Continuous
 62
     7
370
    25
100
AcDbPolyline
 90
       26
 70
   128
 43
0.0
 10
606.1754413738
 20
-151.436694816
 10
605.4072651447
 20
-150.8649913077
 10
604.9095068513
 20
-150.2009652229
 10
604.7134424779
 20
-149.4863397626
 10
604.83139147
 20
-148.7660174728
 10
605.2559426588
 20
-148.0852588519
 10
605.9604199316
 20
-147.4868384679
 10
606.9005583905
 20
-147.0083572743
 10
608.0172856785
 20
-146.6798800042
 10
609.2404337131
 20
-146.5220460925
 10
610.4931476049
 20
-146.5447728245
 10
611.6967147329
 20
-146.7466321958
 10
612.775510548
 20
-147.11494064
 10
613.6617503416
 20
-147.6265559828
 10
614.2997484081
 20
-148.2493315507
 10
614.6494169827
 20
-148.9441360644
 10
614.6887851027
 20
-149.6673124009
 10
614.4153791245
 20
-150.3734207313
 10
613.8463781511
 20
-151.0180936724
 10
613.0175346063
 20
-151.5608240524
 10
611.9809277784
 20
-151.9675101254
 10
610.8016914867
 20
-152.2125983099
 10
609.5539214843
 20
-152.2806888137
 10
608.3160197495
 20
-152.1675032601
 10
607.165768201
 20
-151.8801535138
 10
606.1754413738
 20
-151.436694816
  0
SPLINE
  5
10D
330
1F
100
AcDbEntity
  8
0
  6
Continuous
 62
     7
370
    25
100
AcDbSpline
210
0.0
220
0.0
230
1.0
 70
     8
 71
     3
 72
    10
 73
     6
 74
     0
 42
0.00000001
 43
0.00000001
 40
0.0
 40
0.0
 40
0.0
 40
0.0
 40
0.358120632987647
 40
0.7586932557613255
 40
1.0
 40
1.0
 40
1.0
 40
1.0
 10
607.6560742082328
 20
-151.9852923327967
 30
0.0
 10
608.1267406117495
 20
-151.8862661644974
 30
0.0
 10
609.1238667004712
 20
-151.676475163611
 30
0.0
 10
610.583461868066
 20
-151.6916460156716
 30
0.0
 10
611.4001838268206
 20
-151.9061603111707
 30
0.0
 10
611.7072205177375
 20
-151.9868043525589
 30
0.0
  0
LWPOLYLINE
  5
10E
330
1F
100
AcDbEntity
  8
0
  6
Continuous
 62
     1
370
    25
100
AcDbPolyline
 90
       69
 70
   128
 43
0.0
 10
466.5595375411
 20
-190.6421844177
 10
467.7667007202
 20
-189.96966644
 10
471.1014835845
 20
-188.3498070044
 10
474.5775193457
 20
-186.997302046
 10
478.1870516088
 20
-185.9151695321
 10
481.9220260959
 20
-185.1058241236
 10
485.7741086184
 20
-184.5710717866
 10
489.734703674
 20
-184.3121057625
 10
493.7949736264
 20
-184.3295039059
 10
497.9458584258
 20
-184.6232273948
 10
502.178095825
 20
-185.192620817
 10
506.4822420475
 20
-186.0364136334
 10
510.8486928601
 20
-187.1527230121
 10
515.2677050035
 20
-188.5390580305
 10
519.7294179339
 20
-190.192325233
 10
524.223875825
 20
-192.108835534
 10
528.7410497837
 20
-194.2843124497
 10
533.2708602288
 20
-196.7139016403
 10
537.8031993818
 20
-199.3921817425
 10
542.3279538218
 20
-202.3131764659
 10
546.8350270525
 20
-205.4703679292
 10
551.3143620309
 20
-208.8567112038
 10
555.7559636094
 20
-212.4646500336
 10
560.149920838
 20
-216.2861336962
 10
564.4864290799
 20
-220.3126349675
 10
568.7558118897
 20
-224.5351691486
 10
572.9485426049
 20
-228.9443141145
 10
577.0552656037
 20
-233.5302313389
 10
581.0668171813
 20
-238.2826878472
 10
584.9742459976
 20
-243.1910790506
 10
588.768833051
 20
-248.244452409
 10
592.442111134
 20
-253.4315318705
 10
595.9858837268
 20
-258.7407430326
 10
599.3922432871
 20
-264.1602389691
 10
602.6535888948
 20
-269.6779266655
 10
605.7626432126
 20
-275.2814940028
 10
608.7124687245
 20
-280.9584372314
 10
611.4964832163
 20
-286.696088871
 10
614.1084744632
 20
-292.4816459773
 10
616.5426140914
 20
-298.3021987101
 10
618.7934705834
 20
-304.1447591403
 10
620.8560213984
 20
-309.9962902309
 10
622.725664179
 20
-315.8437349281
 10
624.398227021
 20
-321.6740452962
 10
625.8699777827
 20
-327.474211633
 10
627.1376324128
 20
-333.2312914995
 10
628.1983622779
 20
-338.9324385992
 10
629.0498004751
 20
-344.5649314438
 10
629.6900471129
 20
-350.1162017392
 10
630.1176735505
 20
-355.5738624308
 10
630.3317255861
 20
-360.9257353434
 10
630.3317255861
 20
-366.159878356
 10
630.1176735505
 20
-371.2646120487
 10
629.6900471129
 20
-376.2285457647
 10
629.0498004751
 20
-381.0406030269
 10
628.1983622779
 20
-385.6900462537
 10
627.1376324128
 20
-390.1665007194
 10
625.8699777827
 20
-394.4599777037
 10
624.398227021
 20
-398.5608967805
 10
622.725664179
 20
-402.4601071958
 10
620.8560213984
 20
-406.1489082866
 10
618.7934705834
 20
-409.6190688952
 10
616.5426140914
 20
-412.8628457363
 10
614.1084744632
 20
-415.8730006754
 10
611.4964832163
 20
-418.6428168799
 10
608.7124687245
 20
-421.1661138066
 10
605.7626432126
 20
-423.4372609936
 10
602.6535888948
 20
-425.4511906233
 10
602.2484767168
 20
-425.6878646273
  0
LWPOLYLINE
  5
10F
330
1F
100
AcDbEntity
  8
0
  6
Continuous
 62
     1
370
    25
100
AcDbPolyline
 90
       69
 70
   128
 43
0.0
 10
484.2372866037
 20
-180.4370371064
 10
485.4443702498
 20
-179.7645650423
 10
488.7791531142
 20
-178.1447056067
 10
492.2551888754
 20
-176.7922006482
 10
495.8647211384
 20
-175.7100681343
 10
499.5996956255
 20
-174.9007227258
 10
503.451778148
 20
-174.3659703888
 10
507.4123732037
 20
-174.1070043647
 10
511.4726431561
 20
-174.1244025082
 10
515.6235279555
 20
-174.418125997
 10
519.8557653547
 20
-174.9875194193
 10
524.1599115772
 20
-175.8313122356
 10
528.5263623897
 20
-176.9476216143
 10
532.9453745332
 20
-178.3339566327
 10
537.4070874636
 20
-179.9872238352
 10
541.9015453546
 20
-181.9037341362
 10
546.4187193134
 20
-184.0792110519
 10
550.9485297585
 20
-186.5088002425
 10
555.4808689115
 20
-189.1870803447
 10
560.0056233515
 20
-192.1080750681
 10
564.5126965821
 20
-195.2652665314
 10
568.9920315606
 20
-198.651609806
 10
573.4336331391
 20
-202.2595486358
 10
577.8275903677
 20
-206.0810322985
 10
582.1640986096
 20
-210.1075335697
 10
586.4334814194
 20
-214.3300677508
 10
590.6262121345
 20
-218.7392127167
 10
594.7329351333
 20
-223.3251299411
 10
598.744486711
 20
-228.0775864494
 10
602.6519155273
 20
-232.9859776528
 10
606.4465025807
 20
-238.0393510112
 10
610.1197806636
 20
-243.2264304728
 10
613.6635532565
 20
-248.5356416348
 10
617.0699128168
 20
-253.9551375713
 10
620.3312584245
 20
-259.4728252677
 10
623.4403127422
 20
-265.0763926051
 10
626.3901382541
 20
-270.7533358336
 10
629.174152746
 20
-276.4909874733
 10
631.7861439929
 20
-282.2765445796
 10
634.2202836211
 20
-288.0970973124
 10
636.4711401131
 20
-293.9396577425
 10
638.5336909281
 20
-299.7911888332
 10
640.4033337086
 20
-305.6386335303
 10
642.0758965506
 20
-311.4689438984
 10
643.5476473124
 20
-317.2691102353
 10
644.8153019424
 20
-323.0261901017
 10
645.8760318076
 20
-328.7273372014
 10
646.7274700048
 20
-334.359830046
 10
647.3677166425
 20
-339.9111003414
 10
647.7953430801
 20
-345.368761033
 10
648.0093951158
 20
-350.7206339456
 10
648.0093951158
 20
-355.9547769582
 10
647.7953430801
 20
-361.059510651
 10
647.3677166425
 20
-366.023444367
 10
646.7274700048
 20
-370.8355016291
 10
645.8760318076
 20
-375.4849448559
 10
644.8153019424
 20
-379.9613993216
 10
643.5476473124
 20
-384.2548763059
 10
642.0758965506
 20
-388.3557953827
 10
640.4033337086
 20
-392.2550057981
 10
638.5336909281
 20
-395.9438068888
 10
636.4711401131
 20
-399.4139674974
 10
634.2202836211
 20
-402.6577443385
 10
631.7861439929
 20
-405.6678992776
 10
629.174152746
 20
-408.4377154821
 10
626.3901382541
 20
-410.9610124089
 10
623.4403127422
 20
-413.2321595958
 10
620.3312584245
 20
-415.2460892255
 10
619.9262586224
 20
-415.4826983565
  0
ENDSEC
  0
SECTION
  2
OBJECTS
  0
DICTIONARY
  5
C
330
0
100
AcDbDictionary
281
     1
  3
ACAD_GROUP
350
D
  3
ACAD_LAYOUT
350
1A
  3
ACAD_MLINESTYLE
350
17
  3
ACAD_PLOTSETTINGS
350
19
  3
ACAD_PLOTSTYLENAME
350
E
  3
ACAD_SCALELIST
350
47
  3
DWGPROPS
350
110
  0
DICTIONARY
  5
D
102
{ACAD_REACTORS
330
C
102
}
330
C
100
AcDbDictionary
281
     1
  0
DICTIONARY
  5
1A
102
{ACAD_REACTORS
330
C
102
}
330
C
100
AcDbDictionary
281
     1
  3
Layout1
350
1E
  3
Layout2
350
26
  3
Model
350
22
  0
DICTIONARY
  5
17
102
{ACAD_REACTORS
330
C
102
}
330
C
100
AcDbDictionary
281
     1
  3
Standard
350
18
  0
DICTIONARY
  5
19
102
{ACAD_REACTORS
330
C
102
}
330
C
100
AcDbDictionary
281
     1
  0
ACDBDICTIONARYWDFLT
  5
E
102
{ACAD_REACTORS
330
C
102
}
330
C
100
AcDbDictionary
281
     1
  3
Normal
350
F
100
AcDbDictionaryWithDefault
340
F
  0
DICTIONARY
  5
47
102
{ACAD_REACTORS
330
C
102
}
330
C
100
AcDbDictionary
281
     1
  3
A0
350
48
  3
A1
350
49
  3
A2
350
4A
  3
A3
350
4B
  3
A4
350
4C
  3
A5
350
4D
  3
A6
350
4E
  3
A7
350
4F
  3
A8
350
50
  3
A9
350
51
  3
B0
350
52
  3
B1
350
53
  3
B2
350
54
  3
B3
350
55
  3
B4
350
56
  3
B5
350
57
  3
B6
350
58
  3
B7
350
59
  3
B8
350
5A
  3
B9
350
5B
  3
C0
350
5C
  3
C1
350
5D
  3
C2
350
5E
  3
C3
350
5F
  3
C4
350
60
  3
C5
350
61
  3
C6
350
62
  3
C7
350
63
  3
C8
350
64
  3
C9
350
65
  3
D0
350
66
  3
D1
350
67
  3
D2
350
68
  0
XRECORD
  5
110
102
{ACAD_REACTORS
330
C
102
}
330
C
100
AcDbXrecord
280
     1
  1
DWGPROPS COOKIE
  2

  3

  4

  6

  7

  8
b.kav
  9

300
=
301
=
302
=
303
=
304
=
305
=
306
=
307
=
308
=
309
=
 40
0.0
 41
2459935.585352986
 42
2459935.58535316
  1

 90
        0
  0
LAYOUT
  5
1E
102
{ACAD_REACTORS
330
1A
102
}
330
1A
100
AcDbPlotSettings
  1

  2
none_device
  4

  6

 40
0.0
 41
0.0
 42
0.0
 43
0.0
 44
0.0
 45
0.0
 46
0.0
 47
0.0
 48
0.0
 49
0.0
140
0.0
141
0.0
142
1.0
143
1.0
 70
   688
 72
     1
 73
     0
 74
     5
  7

 75
    16
147
1.0
148
0.0
149
0.0
100
AcDbLayout
  1
Layout1
 70
     1
 71
     1
 10
0.0
 20
0.0
 11
420.0
 21
297.0
 12
0.0
 22
0.0
 32
0.0
 14
1.0000000000E+20
 24
1.0000000000E+20
 34
1.0000000000E+20
 15
-1.0000000000E+20
 25
-1.0000000000E+20
 35
-1.0000000000E+20
146
0.0
 13
0.0
 23
0.0
 33
0.0
 16
1.0
 26
0.0
 36
0.0
 17
0.0
 27
1.0
 37
0.0
 76
     0
330
1B
  0
LAYOUT
  5
26
102
{ACAD_REACTORS
330
1A
102
}
330
1A
100
AcDbPlotSettings
  1

  2
none_device
  4

  6

 40
0.0
 41
0.0
 42
0.0
 43
0.0
 44
0.0
 45
0.0
 46
0.0
 47
0.0
 48
0.0
 49
0.0
140
0.0
141
0.0
142
1.0
143
1.0
 70
   688
 72
     1
 73
     0
 74
     5
  7

 75
    16
147
1.0
148
0.0
149
0.0
100
AcDbLayout
  1
Layout2
 70
     1
 71
     2
 10
0.0
 20
0.0
 11
0.0
 21
0.0
 12
0.0
 22
0.0
 32
0.0
 14
0.0
 24
0.0
 34
0.0
 15
0.0
 25
0.0
 35
0.0
146
0.0
 13
0.0
 23
0.0
 33
0.0
 16
1.0
 26
0.0
 36
0.0
 17
0.0
 27
1.0
 37
0.0
 76
     0
330
23
  0
LAYOUT
  5
22
102
{ACAD_REACTORS
330
1A
102
}
330
1A
100
AcDbPlotSettings
  1

  2
none_device
  4
Letter_(8.50_x_11.00_Inches)
  6

 40
6.35
 41
6.35
 42
6.35000508
 43
6.35000508
 44
215.9
 45
279.4
 46
0.0
 47
0.0
 48
0.0
 49
0.0
140
0.0
141
0.0
142
1.0
143
1.0
 70
  1712
 72
     1
 73
     0
 74
     0
  7

 75
     0
147
1.0
148
0.0
149
0.0
100
AcDbLayout
  1
Model
 70
     1
 71
     0
 10
0.0
 20
0.0
 11
279.4
 21
215.9
 12
0.0
 22
0.0
 32
0.0
 14
0.0
 24
0.0
 34
0.0
 15
279.4
 25
215.9
 35
0.0
146
0.0
 13
0.0
 23
0.0
 33
0.0
 16
1.0
 26
0.0
 36
0.0
 17
0.0
 27
1.0
 37
0.0
 76
     0
330
1F
331
29
  0
MLINESTYLE
  5
18
102
{ACAD_REACTORS
330
17
102
}
330
17
100
AcDbMlineStyle
  2
Standard
 70
     0
  3

 62
   256
 51
90.0
 52
90.0
 71
     2
 49
0.5
 62
   256
  6
BYLAYER
 49
-0.5
 62
   256
  6
BYLAYER
  0
ACDBPLACEHOLDER
  5
F
102
{ACAD_REACTORS
330
E
102
}
330
E
  0
SCALE
  5
48
102
{ACAD_REACTORS
330
47
102
}
330
47
100
AcDbScale
 70
     0
300
1:1
140
1.0
141
1.0
290
     1
  0
SCALE
  5
49
102
{ACAD_REACTORS
330
47
102
}
330
47
100
AcDbScale
 70
     0
300
1:2
140
1.0
141
2.0
290
     0
  0
SCALE
  5
4A
102
{ACAD_REACTORS
330
47
102
}
330
47
100
AcDbScale
 70
     0
300
1:4
140
1.0
141
4.0
290
     0
  0
SCALE
  5
4B
102
{ACAD_REACTORS
330
47
102
}
330
47
100
AcDbScale
 70
     0
300
1:5
140
1.0
141
5.0
290
     0
  0
SCALE
  5
4C
102
{ACAD_REACTORS
330
47
102
}
330
47
100
AcDbScale
 70
     0
300
1:8
140
1.0
141
8.0
290
     0
  0
SCALE
  5
4D
102
{ACAD_REACTORS
330
47
102
}
330
47
100
AcDbScale
 70
     0
300
1:10
140
1.0
141
10.0
290
     0
  0
SCALE
  5
4E
102
{ACAD_REACTORS
330
47
102
}
330
47
100
AcDbScale
 70
     0
300
1:16
140
1.0
141
16.0
290
     0
  0
SCALE
  5
4F
102
{ACAD_REACTORS
330
47
102
}
330
47
100
AcDbScale
 70
     0
300
1:20
140
1.0
141
20.0
290
     0
  0
SCALE
  5
50
102
{ACAD_REACTORS
330
47
102
}
330
47
100
AcDbScale
 70
     0
300
1:30
140
1.0
141
30.0
290
     0
  0
SCALE
  5
51
102
{ACAD_REACTORS
330
47
102
}
330
47
100
AcDbScale
 70
     0
300
1:40
140
1.0
141
40.0
290
     0
  0
SCALE
  5
52
102
{ACAD_REACTORS
330
47
102
}
330
47
100
AcDbScale
 70
     0
300
1:50
140
1.0
141
50.0
290
     0
  0
SCALE
  5
53
102
{ACAD_REACTORS
330
47
102
}
330
47
100
AcDbScale
 70
     0
300
1:100
140
1.0
141
100.0
290
     0
  0
SCALE
  5
54
102
{ACAD_REACTORS
330
47
102
}
330
47
100
AcDbScale
 70
     0
300
2:1
140
2.0
141
1.0
290
     0
  0
SCALE
  5
55
102
{ACAD_REACTORS
330
47
102
}
330
47
100
AcDbScale
 70
     0
300
4:1
140
4.0
141
1.0
290
     0
  0
SCALE
  5
56
102
{ACAD_REACTORS
330
47
102
}
330
47
100
AcDbScale
 70
     0
300
8:1
140
8.0
141
1.0
290
     0
  0
SCALE
  5
57
102
{ACAD_REACTORS
330
47
102
}
330
47
100
AcDbScale
 70
     0
300
10:1
140
10.0
141
1.0
290
     0
  0
SCALE
  5
58
102
{ACAD_REACTORS
330
47
102
}
330
47
100
AcDbScale
 70
     0
300
100:1
140
100.0
141
1.0
290
     0
  0
SCALE
  5
59
102
{ACAD_REACTORS
330
47
102
}
330
47
100
AcDbScale
 70
     0
300
1/128" = 1'-0"
140
0.0078125
141
12.0
290
     0
  0
SCALE
  5
5A
102
{ACAD_REACTORS
330
47
102
}
330
47
100
AcDbScale
 70
     0
300
1/64" = 1'-0"
140
0.015625
141
12.0
290
     0
  0
SCALE
  5
5B
102
{ACAD_REACTORS
330
47
102
}
330
47
100
AcDbScale
 70
     0
300
1/32" = 1'-0"
140
0.03125
141
12.0
290
     0
  0
SCALE
  5
5C
102
{ACAD_REACTORS
330
47
102
}
330
47
100
AcDbScale
 70
     0
300
1/16" = 1'-0"
140
0.0625
141
12.0
290
     0
  0
SCALE
  5
5D
102
{ACAD_REACTORS
330
47
102
}
330
47
100
AcDbScale
 70
     0
300
3/32" = 1'-0"
140
0.09375
141
12.0
290
     0
  0
SCALE
  5
5E
102
{ACAD_REACTORS
330
47
102
}
330
47
100
AcDbScale
 70
     0
300
1/8" = 1'-0"
140
0.125
141
12.0
290
     0
  0
SCALE
  5
5F
102
{ACAD_REACTORS
330
47
102
}
330
47
100
AcDbScale
 70
     0
300
3/16" = 1'-0"
140
0.1875
141
12.0
290
     0
  0
SCALE
  5
60
102
{ACAD_REACTORS
330
47
102
}
330
47
100
AcDbScale
 70
     0
300
1/4" = 1'-0"
140
0.25
141
12.0
290
     0
  0
SCALE
  5
61
102
{ACAD_REACTORS
330
47
102
}
330
47
100
AcDbScale
 70
     0
300
3/8" = 1'-0"
140
0.375
141
12.0
290
     0
  0
SCALE
  5
62
102
{ACAD_REACTORS
330
47
102
}
330
47
100
AcDbScale
 70
     0
300
1/2" = 1'-0"
140
0.5
141
12.0
290
     0
  0
SCALE
  5
63
102
{ACAD_REACTORS
330
47
102
}
330
47
100
AcDbScale
 70
     0
300
3/4" = 1'-0"
140
0.75
141
12.0
290
     0
  0
SCALE
  5
64
102
{ACAD_REACTORS
330
47
102
}
330
47
100
AcDbScale
 70
     0
300
1" = 1'-0"
140
1.0
141
12.0
290
     0
  0
SCALE
  5
65
102
{ACAD_REACTORS
330
47
102
}
330
47
100
AcDbScale
 70
     0
300
1-1/2" = 1'-0"
140
1.5
141
12.0
290
     0
  0
SCALE
  5
66
102
{ACAD_REACTORS
330
47
102
}
330
47
100
AcDbScale
 70
     0
300
3" = 1'-0"
140
3.0
141
12.0
290
     0
  0
SCALE
  5
67
102
{ACAD_REACTORS
330
47
102
}
330
47
100
AcDbScale
 70
     0
300
6" = 1'-0"
140
6.0
141
12.0
290
     0
  0
SCALE
  5
68
102
{ACAD_REACTORS
330
47
102
}
330
47
100
AcDbScale
 70
     0
300
1'-0" = 1'-0"
140
12.0
141
12.0
290
     0
  0
ENDSEC
  0
EOF
